» » »

Nirvana, Anuerysm Tabs (ver.3)

Artists:  A B C D E F G H I J K L M N O P Q R S T U V W X Y Z # 

Anuerysm Tabs (ver.3)

Nirvana Tabs
Rating:
0/5 (0 votes)
Hard to play? Try these video lessons and learn fast.
                


Standard Tuning (EADGBe)


Intro:

e:-----------------------------------\
B:----------------------------------- \
G:-----------------------------------  \
D:-----------------------------------  /Play 2 times
A:----------------------------------- /
E:---2-2-2-9-9-9-9-7-7-7-7-5-5-5-5---/



e:---------------------------------------------------------------------------\
B:--3333333333333333-4444444444444444-55555555-66666666-77777777-8888-99-10/- \
G:--oooooooooooooooo-oooooooooooooooo-oooooooo-oooooooo-oooooooo-oooo-oo-o---  \
D:---------------------------------------------------------------------------  / ONCE
A:--------------------------------------------------------------------------- /
E:---------------------------------------------------------------------------/


e:-----------------------------------\
B:----------------------------------- \
G:-----------------------------------  \
D:-----------------------------------  /Play 8 times
A:----------------------------------- /
E:---2-2-2-9-9-9-9-7-7-7-7-5-5-5-5---/

e:---------------------------------------------------------------------------\
B:--3333333333333333-4444444444444444-55555555-66666666-77777777-8888-99-10/- \
G:--oooooooooooooooo-oooooooooooooooo-oooooooo-oooooooo-oooooooo-oooo-oo-o---  \
D:---------------------------------------------------------------------------  / ONCE
A:--------------------------------------------------------------------------- /BEFORE
E:---------------------------------------------------------------------------/  VERSE


e:---------------------------------------------------------------------------\
B:--3333333333333333-4444444444444444-55555555-66666666-77777777-8888-99-10/- \
G:--oooooooooooooooo-oooooooooooooooo-oooooooo-oooooooo-oooooooo-oooo-oo-o---  \
D:---------------------------------------------------------------------------  / ONCE
A:--------------------------------------------------------------------------- /
E:---------------------------------------------------------------------------/


VERSE:

e:------------------------------------\
B:------------------------------------ \
G:------------------------------------  \
D:------------------------------------  /PLay 4 times
A:--------7-7-7-7-7-7-7-7-7-7-7-7----- /
E:--------5-5-5-5-5-5-5-5-5-5-5-5-----/

CHORUS:

e:---------------------------------
B:---------------------------------
G:---------------------------------
D:---------------------------------
A:---4-4-4-5-6-6-7-8-8-9-9-8-7-O---
E:---2-2-2-3-4-4-5-6-6-7-7-6-5-O---

VERSE:

e:------------------------------------\
B:------------------------------------ \
G:------------------------------------  \
D:------------------------------------  /PLay 4 times
A:--------7-7-7-7-7-7-7-7-7-7-7-7----- /
E:--------5-5-5-5-5-5-5-5-5-5-5-5-----/

CHORUS:

e:---------------------------------
B:---------------------------------
G:---------------------------------
D:---------------------------------
A:---4-4-4-5-6-6-7-8-8-9-9-8-7-O---
E:---2-2-2-3-4-4-5-6-6-7-7-6-5-O---


"SHE KEEPS IT PUMPING STRAIGHT TO MY HEART"
e:-----------------------------------\
B:----------------------------------- \
G:-----------------------------------  \
D:-----------------------------------  /Play 8 times
A:----------------------------------- /
E:---2-2-2-9-9-9-9-7-7-7-7-5-5-5-5---/

OUTRO"

e:---------------------------------------------------------------------------\
B:--3333333333333333-4444444444444444-55555555-66666666-77777777-8888-99-10/- \
G:--oooooooooooooooo-oooooooooooooooo-oooooooo-oooooooo-oooooooo-oooo-oo-o---  \
D:---------------------------------------------------------------------------  / ONCE
A:--------------------------------------------------------------------------- /
E:---------------------------------------------------------------------------/


If it's wrong I'm sorry. 
            

comments powered by Disqus
↑ Back to top | Nirvana Tabs for Anuerysm. Lyrics for acoustic guitar and electric guitar. Tablatures and chords are parodies/interpretations of the original songs. You may use it for private study, scholarship, research or language learning purposes only