» » »

Anuerysm Tabs (ver.2)

Artists:  A B C D E F G H I J K L M N O P Q R S T U V W X Y Z # 

Anuerysm Tabs (ver.2)

Nirvana
Rating:
0/5 (0 votes)

Hard to play? Try these video lessons and learn fast.
                intro
e-----------------------------------------------------------------------------------|
b------------------------------------------------------------------------2----------|
g---------------------------------5------5--------5--------4------4------2----------|
d-----------4---------4-----------5------5--------5--------4------4------2----------|
a-----------4---------4-------3-------3--------3---------2------2-------------------|
e------2---------2------------------------------------------------------------------|
  
e--------------------------------------------------------------------
b--------------------------------------------------------------------
g---3~~~~~~-44444444-5555555-6666666-77777777-88888b8b---------------
d--------------------------------------------------------------------
a--------------------------------------------------------------------
e--------------------------------------------------------------------



 on the verse there is only bass in drums and the chorus is sort of the same as 
 the intro but if you want to find it do it yourself,after all i did figure this 
 out by myself
            
Hard to play? Try these video lessons and learn fast. | Correct




comments powered by Disqus
↑ Back to top | Tablatures and chords are parodies/interpretations of the original songs. You may use it for private study, scholarship, research or language learning purposes only