>
 >
Anuerysm

Anuerysm Guitar Tabs

Nirvana - Anuerysm chords, tabs, tablatures, lyrics

Guitar lessons | Add/correct | Request | Top 50 tabs Artists:  A B C D E F G H I J K L M N O P Q R S T U V W X Y Z 0-9

Anuerysm Guitar Tabs – Nirvana

CD, Sheet music, Poster

Do you like Anuerysm? Share with your friends now
TabsTabs v2Tabs v3
||------------------------------------------------------------------||
||------------------------------------------------------------------||
||------------------------5-------------4---------------2--------||
||------4----------------5-------------4---------------2---------||
||------4-------3--3-------3--2--2------2---0--0--------0---||
||--2-------2-----------------------------------------------------||
INTRO 2 *distortion on and high reverb on
||----------------------------------------------------------------------||
||----------------------------------------------------------------------||
||--3-3-3-3-3-3-3-3-3/4-4-4-4-4-4-4-4-4/-5-5-5-5-5-5---||
||----------------------------------------------------------------------||
||----------------------------------------------------------------------||
||----------------------------------------------------------------------||

||--------------------------------------------------------------------||
||--------------------------------------------------------------------||
||--5/6-6-6-6-6/7-7-7-7-7/8-8-8-8-8/9-9-9/10-10-10---||
||--------------------------------------------------------------------||
||--------------------------------------------------------------------||
||--------------------------------------------------------------------||

||--------------------------------------||
||--------------------------------------||
||-10/11-11-11/13/14/-----------||
||--------------------------------------||
||--------------------------------------||
||--------------------------------------||
INTRO 3 *distortion on / reverb off(play 8 x's)
||----------------------------------------------------------||
||----------------------------------------------------------||
||----------/5-5-5-5-5\4-4-4-4-4\2-2-2-2-2-------||
||-4-4-4--/5-5-5-5-5\4-4-4-4-4\2-2-2-2-2-------||
||-4-4-4--/3-3-3-3-3\2-2-2-2-2\0-0-0-0-0-------||
||-2-2-2-------------------------------------------------||
INTRO 4-(similar to intro 2, figure it out yourself)

VERSE PART 1(no singing)(play once) *reverb off
||--------------------------------------------------------------------||
||--------------------------------------------------------------------||
||--------------------------------------------------------------------||
||-9-9-9-9-9-9-9-9-9-9-9-9-9-9-9-9-9-9-9-9-9-9-9-9--||
||-9-9-9-9-9-9-9-9-9-9-9-9-9-9-9-9-9-9-9-9-9-9-9-9--||
||-7-7-7-7-7-7-7-7-7-7-7-7-7-7-7-7-7-7-7-7-7-7-7-7--||
x-----slight palm mute------------------------------------------x

||-------------------------------------------------------------------||
||-------------------------------------------------------------------||
||------------------------------------------------------7-----------||
||-9-9-9-9-9-9-9-9-9-9-9-9-9-9-9-9-9-9-----7-(10 x's)||
||-9-9-9-9-9-9-9-9-9-9-9-9-9-9-9-9-9-9-----5-----------||
||-7-7-7-7-7-7-7-7-7-7-7-7-7-7-7-7-7-7-----------------||
x----slight palm mute----x                        x------don-----x
(don=distortion on)
VERSE PART 2 *reverb off
||-------------------------------------------------------------------||
||-------------------------------------------------------------------||
||-------------------------------------------------------------------||
||-9-9-9-9-9-9-9-9-9-9-9-9-9-9-9--9-9-9-9-9-9-9-----||
||-9-9-9-9-9-9-9-9-9-9-9-9-9-9-9--9-9-9-9-9-9-9-----||
||-7-7-7-7-7-7-7-7-7-7-7-7-7-7-7--7-7-7-7-7-7-7-----||
x--------slight palm mute----------x
||------------------------------||
||------------------------------||
||-7-7-7-7-7-7-7-7-7-7---||
||-7-7-7-7-7-7-7-7-7-7---||
||-5-5-5-5-5-5-5-5-5-5---||
||------------------------------||
x-----------don--------------x

CHORUS *distortion on/reverb off
||------------------------------------------------||
||------------------------------------------------||
||-----------------------------------------------||
||--4-4---/6-7-7-7-8-9-9-9-8-7-7-7-----||
||--4-4---/6-7-7-7-8-9-9-9-8-7-7-7-----||
||--2-2---/4-5-5-5-6-7-7-7-6-5-5-5-----||
*on chorus, do everything with a slide





Comments


Popular Nirvana tabs & chords
D-7 Bass Tabs
Love Buzz 6 Bass Tabs
Pennyroyal Tea Chords
Beeswax Tabs
Frances Farmer Will Have Her Revenge On Seattle 2 Tabs
Frances Farmer Will Have Her Revenge Onseattle Tabs
Something In The Way 2 Tabs
Somethings In The Way 1 Tabs
Bring Back Rock N Roll Ukulele
Dive Ukulele


Song lyrics



↑ Back to top | Tablatures and chords are parodies/interpretations of the original songs. You may use it for private study, scholarship, research or language learning purposes only
© 2014 AZChords.com Contact us | Privacy policy | DMCA | Add/correct tabs | Request tabs | Top 50 tabs