>
 >
Anorexorcist

Anorexorcist Bass Tabs

Nirvana - Anorexorcist chords, tabs, tablatures, lyrics

Guitar lessons | Add/correct | Request | Top 50 tabs Artists:  A B C D E F G H I J K L M N O P Q R S T U V W X Y Z 0-9

Anorexorcist Bass Tabs – Nirvana

CD, Sheet music, Poster

Do you like Anorexorcist? Share with your friends now
Bass TabsBass Tabs v2Bass Tabs v3TabsTabs v2

ANOREXORCIST (Bassline)
As recorded by Nirvana

	

Words by Kurt Cobain Music by Kurt Cobain, Krist Novoselic, Dave Foster
Arranged by Kurt Cobain

Gtr I (D A D G) - 'Krist Novoselic'

 Intro
 4/4
  Gtr I
  Wx7
|--------|
|--------|
|--------|
|--------|


  Q=160
  W            W          W     3x
|----------||-----------|-------||
|----------||o----------|------o||
|----------||o----------|------o||
|----------||-----------|-------||


  E E E E E E E E   E E E E E E E E
|-----------------|-----------------|
|-----------------|-----------------|
|-----------------|-----------------|
|-3-2-0-3-2-0-3-2-|-0-3-2-0-3-2-0-0-|


   Verse
    E E E E E E E E   E E E E E E E E  4x W          W
||------------------|------------------||----------|------|
||o-----------------|-----------------o||----------|------|
||o-----------------|-----------------o||----------|------|
||--3-2-0-3-2-0-3-2-|-0-3-2-0-3-2-0-0--||----------|------|


  W          W            E E E E E E E E   E E E E E E E E  4x
|----------|----------||------------------|------------------||
|----------|----------||o-----------------|-----------------o||
|----------|----------||o-----------------|-----------------o||
|----------|----------||--3-2-0-3-2-0-3-2-|-0-3-2-0-3-2-0-0--||


  W          W          W          H    E E E E
|----------|----------|----------|--------------|
|----------|----------|----------|--------------|
|----------|----------|----------|--------------|
|----------|----------|----------|--------0-2-3-|


   Chorus
    H    Q.   E   +E  Q  E E E E E   H    H      E E Q.   E E E   5x
||--------------|------------------|-----------|------------------||
||o-------------|------------------|-----------|-----------------o||
||o-2----2----2-|-(2)-2--2-2-------|-2----0----|-----------------o||
||--------------|------------0-2-3-|-----------|-3-2-0----0-2-3---||


   Verse
    E E E E E E E E   E E E E E E E E  4x W          W
||------------------|------------------||----------|------|
||o-----------------|-----------------o||----------|------|
||o-----------------|-----------------o||----------|------|
||--3-2-0-3-2-0-3-2-|-0-3-2-0-3-2-0-0--||----------|------|


  W          W            E E E E E E E E   E E E E E E E E  4x
|----------|----------||------------------|------------------||
|----------|----------||o-----------------|-----------------o||
|----------|----------||o-----------------|-----------------o||
|----------|----------||--3-2-0-3-2-0-3-2-|-0-3-2-0-3-2-0-0--||


  W          W          W          H    E E E E
|----------|----------|----------|--------------|
|----------|----------|----------|--------------|
|----------|----------|----------|--------------|
|----------|----------|----------|--------0-2-3-|


   Out-Chorus
                                                1.,2.,3.,4.
    H    Q.   E   +E  Q  E E E E E   H    H      E E Q.   E E E   5x
||--------------|------------------|-----------|------------------||
||o-------------|------------------|-----------|-----------------o||
||o-2----2----2-|-(2)-2--2-2-------|-2----0----|-----------------o||
||--------------|------------0-2-3-|-----------|-3-2-0----0-2-3---||


  5.
  E E H.        +W
|-------------|--------*|
|-------------|--------*|
|-------------|--------*|
|-3-2-0-------|-(0)----*|



Duration Legend
---------------
W - whole; H - half; Q - quarter; E - 8th; S - 16th; T - 32nd; X - 64th; a - acciaccatura
+ - note tied to previous; . - note dotted; .. - note double dotted
Uncapitalized letters represent notes that are staccato (1/2 duration)
Irregular groupings are notated above the duration line
Duration letters will always appear directly above the note/fret number it represents the
duration for.  Duration letters with no fret number below them represent rests.  Multi-
bar rests are notated in the form Wxn, where n is the number of bars to rest for.  Low
melody durations appear below the staff

Tablature Legend
----------------
 h   - hammer-on
 p   - pull-off
 b   - bend
 pb  - pre-bend
 r   - bend release (if no number after the r, then release immediately)
 /\  - slide into or out of (from/to "nowhere")
 s   - legato slide
 S   - shift slide
 - natural harmonic
[n]  - artificial harmonic
n(n) - tapped harmonic
 ~   - vibrato
 tr  - trill
 T   - tap
 TP  - trem. picking
 PM  - palm muting
\n/  - tremolo bar dip; n = amount to dip
 \n  - tremolo bar down
 n/  - tremolo bar up
/n\  - tremolo bar inverted dip
 =   - hold bend; also acts as connecting device for hammers/pulls
 <> - volume swell (louder/softer)
 x   - on rhythm slash represents muted slash
 o   - on rhythm slash represents single note slash

Misc Legend
-----------
 |  - bar
||  - double bar
||o - repeat start
o|| - repeat end
*|  - double bar (ending)
 :  - bar (freetime)
 $  - Segno
 &  - Coda
Tempo markers -  = BPM(8/16=s8/s16), where s8 = swing 8ths, s16 = swing 16ths





Comments


Popular Nirvana tabs & chords
Frances Farmer Will Have Her Revenge On Seattle Bass Tabs
Come As You Are 1 Chords
Come As You Are 4 Chords
Come As You Are 1 Tabs
Do You Love Me? Tabs
Gallons Of Rubbing Alcohol Flow Through The Strip Tabs
Heart Shaped Box 6 Tabs
Heart Shaped Box6 Tabs
In His Room 1 Tabs
Lake Of Fire 1 Tabs


Song lyrics



↑ Back to top | Tablatures and chords are parodies/interpretations of the original songs. You may use it for private study, scholarship, research or language learning purposes only
© 2014 AZChords.com Contact us | Privacy policy | DMCA | Add/correct tabs | Request tabs | Top 50 tabs