» » »

Aneursym Tabs (ver.11)

Artists:  A B C D E F G H I J K L M N O P Q R S T U V W X Y Z # 

Aneursym Tabs (ver.11)

Nirvana
Rating:
0/5 (0 votes)

Hard to play? Try these video lessons and learn fast.
                This is 100% correct.. 

(p/m) - palm mute

Intro

e-------------------------------------------
B-------------------------------------------
G-------------------------------------------
D-----5-4----------5-4----------------------
A--4--3-2--7----4--3-2--7-------------------
E--2-------5----2-------5-------------------

Drum and Bass enter here

(Distortion)

e-------------------------------------------
B-------------------------------------------
G---3-4-5-6-7-8-9-10------------------------
D-------------------------------------------
A-------------------------------------------
E-------------------------------------------

e-------------------------------------------
B-------------------------------------------
G-------------------------------------------
D-----5-4-----------------------------------
A--4--3-2--7--------------------------------
E--2-------5--------------------------------    (8x)

e-------------------------------------------
B-------------------------------------------
G---3-4-5-6-7-8-9-10------------------------
D-------------------------------------------
A-------------------------------------------
E-------------------------------------------

e-------------------------------------------
B-------------------------------------------
G-------------------------------------------
D---------------7---------------------------
A---------5-----5---------------------------
E---(p/m)-7---------------------------------  (6x)

(Chorus)

e-------------------------------------------
B-------------------------------------------
G-------------------------------------------
D-------------------------------------------
A--4--7—-8-9-7------------------------------
E--2--5—-6-7-5------------------------------ (8x)
       |_|
      slide

e-------------------------------------------
B-------------------------------------------
G-------------------------------------------
D---------------7---------------------------
A---------5-----5---------------------------
E---(p/m)-7---------------------------------  (6x)

(Chorus)

e-------------------------------------------
B-------------------------------------------
G-------------------------------------------
D------------------------------------------
A--4--7—-8-9-7-------------------------------
E--2--5—-6-7-5-------------------------------- (8x)
       |_|
      slide


e-------------------------------------------
B-------------------------------------------
G---3-4-5-6-7-8-9-10------------------------
D-------------------------------------------
A-------------------------------------------
E-------------------------------------------

e-------------------------------------------
B-------------------------------------------
G-------------------------------------------
D-----5-4-----------------------------------
A--4--3-2--7--------------------------------
E--2-------5--------------------------------    (10x)

e-------------------------------------------
B-------------------------------------------
G---3-4-5-6-7-8-9-10-13---------------------
D-------------------------------------------
A-------------------------------------------
E-------------------------------------------

*Note: slide to last note from 10 and bend note.
            
Hard to play? Try these video lessons and learn fast. | Correct




comments powered by Disqus
↑ Back to top | Tablatures and chords are parodies/interpretations of the original songs. You may use it for private study, scholarship, research or language learning purposes only