>
 >
Aneurysm 4

Aneurysm 4 Guitar Tabs

Nirvana - Aneurysm 4 chords, tabs, tablatures, lyrics

Guitar lessons | Add/correct | Request | Top 50 tabs Artists:  A B C D E F G H I J K L M N O P Q R S T U V W X Y Z 0-9

Aneurysm 4 Guitar Tabs – Nirvana

CD, Sheet music, Poster

Do you like Aneurysm 4? Share with your friends now
Bass TabsBass Tabs v2Bass Tabs v3ChordsTabsTabs v2Tabs v3Tabs v4Tabs v5Tabs v6Tabs v7Tabs v8Tabs v9
-----------------------------------------------------------------------------
	        	       Aneurysm - Incesticide
-----------------------------------------------------------------------------

Tuning: Normal (E A D G B e)


::INTRO::
   F#      C5        B5        A5

e|--------------------------------------|\
B|-------------5---------4--------------| \
G|---------5---5-5---4---4-4---2---2-2--|  \
D|-4-4-0---5-5---5---4-4---4---2-2-2-2--|   \
A|-4-4-0---3-3---3---2-2---2---0-0---0--|    \
E|-2---0--------------------------------|     \
|| F#      C5        B5        A5              \ Clean Tone
||  			                       /
e|--------------------------------------|     /
B|-------------5---------4--------------|    /
G|---------5---5-5---4---4-4---2---2-2--|   /
D|-4-4-0---5-5---5---4-4---4---2-2-2-2--|  /
A|-4-4-0---3-3---3---2-2---2---0-0---0--| /
E|-2---0--------------------------------|/


||Dist On
||N.C
||
e|-----------------------------------------------------------------|
B|-----------------------------------------------------------------|
G|-3-3-3-3-3-3-3-3/4-4-4-4-4-4-4-4/5-5-5-5-5-5-5-5/6-6-6-6-6-6-6-6/|
D|-----------------------------------------------------------------|
A|-----------------------------------------------------------------|
E|-----------------------------------------------------------------|
||								  ||
||								  ||
||								  ||
e|-----------------------------------------------------------------|
B|---------------------------------------------------------0-------|
G|7-7-7-7/8-8/9-9/10-10/11-11/12-12/13/14/15/16/17/18/19/--0-------|
D|---------------------------------------------------------0-------|
A|---------------------------------------------------------0-------|
E|-----------------------------------------------------------------|


   F#5     C5       B5      A5         F#5     C5        B5      A5
e|-----------------------------------|-----------------------------------|
B|-----------------------------------|-----------------------------------|
G|---------5-5-5-0--4-4-4-0--2-2-2-0-|---------5-5-5-0--4-4-4-0--2-2-2-0-|
D|-4--4-0--5-5-5-0--4-4-4-0--2-2-2-0-|-4--4-0--5-5-5-0--4-4-4-0--2-2-2-0-|
A|-4--4-0--3-3-3-0--2-2-2-0--0-0-0-0-|-4--4-0--3-3-3-0--2-2-2-0--0-0-0-0-|
E|-2--2-0----------------------------|-2--2-0----------------------------|
||						                        ||
|| F#5     C5       B5      A5         F#5     C5        B5      A5     ||
e|-----------------------------------|-----------------------------------|
B|-----------------------------------|-----------------------------------|
G|---------5-5-5-0--4-4-4-0--2-2-2-0-|---------5-5-5-0--4-4-4-0--2-2-2-0-|
D|-4--4-0--5-5-5-0--4-4-4-0--2-2-2-0-|-4--4-0--5-5-5-0--4-4-4-0--2-2-2-0-|
A|-4--4-0--3-3-3-0--2-2-2-0--0-0-0-0-|-4--4-0--3-3-3-0--2-2-2-0--0-0-0-0-|
E|-2--2-0----------------------------|-2--2-0----------------------------|
||   								        ||
|| F#5     C5       B5      A5         F#5     C5        B5      A5     ||
e|-----------------------------------|-----------------------------------|
B|-----------------------------------|-----------------------------------|
G|---------5-5-5-0--4-4-4-0--2-2-2-0-|---------5-5-5-0--4-4-4-0--2-2-2-0-|
D|-4--4-0--5-5-5-0--4-4-4-0--2-2-2-0-|-4--4-0--5-5-5-0--4-4-4-0--2-2-2-0-|
A|-4--4-0--3-3-3-0--2-2-2-0--0-0-0-0-|-4--4-0--3-3-3-0--2-2-2-0--0-0-0-0-|
E|-2--2-0----------------------------|-2--2-0----------------------------|
||						                        ||
|| F#5     C5       B5      A5         F#5     C5        B5      A5     ||
e|-----------------------------------|-----------------------------------|
B|-----------------------------------|-----------------------------------|
G|---------5-5-5-0--4-4-4-0--2-2-2-0-|---------5-5-5-0--4-4-4-0--2-2-2-0-|
D|-4--4-0--5-5-5-0--4-4-4-0--2-2-2-0-|-4--4-0--5-5-5-0--4-4-4-0--2-2-2-0-|
A|-4--4-0--3-3-3-0--2-2-2-0--0-0-0-0-|-4--4-0--3-3-3-0--2-2-2-0--0-0-0-0-|
E|-2--2-0----------------------------|-2--2-0----------------------------|


  N.C
e|-----------------------------------------------------------------|
B|-----------------------------------------------------------------|
G|-3-3-3-3-3-3-3-3/4-4-4-4-4-4-4-4/5-5-5-5-5-5-5-5/6-6-6-6-6-6-6-6/|
D|-----------------------------------------------------------------|
A|-----------------------------------------------------------------|
E|-----------------------------------------------------------------|
||								  ||
||								  ||
e|-------------------------------------------------15-15-15-15-15--|
B|-------------------------------------------------14-14-14-14-14--|
G|7-7-7-7-7-7-7-7/8-8-8-8-8-8-8-8/9-9-9-9-9-9-9-9--13-13-13-13-13--|
D|-----------------------------------------------------------------|
A|-----------------------------------------------------------------|
E|-----------------------------------------------------------------|
||             ||
||             ||
e|-15-15-15-0---|
B|-14-14-14-0---|
G|-13-13-13-0---|
D|--------------|
A|--------------|
E|--------------|


||Dist Off
|| B5
||
e|---------------------------------------------------------------|
B|---------------------------------------------------------------|
G|---------------------------------------------------------------|
D|-9-9-9-9--9-9-9-9--9-9-9-9--9-9-9-9--9-9-9-9--9-9-9-9--9-9-9-9-|
A|-9-9-9-9--9-9-9-9--9-9-9-9--9-9-9-9--9-9-9-9--9-9-9-9--9-9-9-9-|
E|-7-7-7-7--7-7-7-7--7-7-7-7--7-7-7-7--7-7-7-7--7-7-7-7--7-7-7-7-|
||         Dist On	 					||
||		   D5						||
||                   	                                        ||
e|-0-0-0-0-------------------------------------------------------|
B|-0-0-0-0-------------------------------------------------------|
G|-------0---------7--7---7-7-7-7---7-7-7-7---7-7-7-0------------|
D|-9-9-9-0---------7--7---7-7-7-7---7-7-7-7---7-7-7-0------------|
A|-9-9-9-0---------5--5---5-5-5-5---5-5-5-5---5-5-5-0------------|
E|-7-7-7---------------------------------------------------------|


||Dist Off                            Dist On                 
|| B5			                      D5
||
e|--------------------------------0-0----------------------------|
B|--------------------------------0-0----------------------------|
G|----------------------------------0---------7--7---7-7-7-7-----|
D|-9-9-9-9--9-9-9-9--9-9-9-9--9-9-9-0---------7--7---7-7-7-7-----|
A|-9-9-9-9--9-9-9-9--9-9-9-9--9-9-9-0---------5--5---5-5-5-5-----|
E|-7-7-7-7--7-7-7-7--7-7-7-7--7-7-7------------------------------|
||                      ||
||                      ||
||			||
e|-----------------------|
B|-----------------------|
G|-7-7-7-7---7-7-7-0-----|
D|-7-7-7-7---7-7-7-0-----|
A|-5-5-5-5---5-5-5-0-----|
E|-----------------------|



::VERSE ONE::
||Dist Off      			    Dist On     
|| B5 					    D5
||          Come on over (and) do the twist                    Arh-
e|-----------------------------------0-----|----------------------|
B|-----------------------------------0-0---|----------------------|
G|-------------------------------------0---|-7--7---7-7-7-7---7-7-|
D|-9-9-9-9---9-9-9-9---9-9-9-9---9-9-9-0---|-7--7---7-7-7-7---7-7-|
A|-9-9-9-9---9-9-9-9---9-9-9-9---9-9-9-0---|-5--5---5-5-5-5---5-5-|
E|-7-7-7-7---7-7-7-7---7-7-7-7---7-7-7-----|----------------------|
||               ||
||               ||
||-hhhhhhaaaaaaa ||
e|----------------|
B|----------------|
G|-7-7---7-7-7-0--|
D|-7-7---7-7-7-0--|
A|-5-5---5-5-5-0--|
E|----------------|


||Dist Off      			     Dist On     
|| B5 					     D5
||           Over do it__ and have a fit                      Arh-
e|-----------------------------------0-----|----------------------|
B|-----------------------------------0-0---|----------------------|
G|-------------------------------------0---|-7--7---7-7-7-7---7-7-|
D|-9-9-9-9---9-9-9-9---9-9-9-9---9-9-9-0---|-7--7---7-7-7-7---7-7-|
A|-9-9-9-9---9-9-9-9---9-9-9-9---9-9-9-0---|-5--5---5-5-5-5---5-5-|
E|-7-7-7-7---7-7-7-7---7-7-7-7---7-7-7-----|----------------------|
||               ||
||               ||
||-hhhhhhaaaaaaa ||
e|----------------|
B|----------------|
G|-7-7---7-7-7-0--|
D|-7-7---7-7-7-0--|
A|-5-5---5-5-5-0--|
E|----------------|


||Dist Off      			     Dist On     
|| B5 					     D5
||        Love you so much it makes me sick                     Arh-
e|-----------------------------------0-----|----------------------|
B|-----------------------------------0-0---|----------------------|
G|-------------------------------------0---|-7--7---7-7-7-7---7-7-|
D|-9-9-9-9---9-9-9-9---9-9-9-9---9-9-9-0---|-7--7---7-7-7-7---7-7-|
A|-9-9-9-9---9-9-9-9---9-9-9-9---9-9-9-0---|-5--5---5-5-5-5---5-5-|
E|-7-7-7-7---7-7-7-7---7-7-7-7---7-7-7-----|----------------------|
||               ||
||               ||
||-hhhhhhaaaaaaa ||
e|----------------|
B|----------------|
G|-7-7---7-7-7-0--|
D|-7-7---7-7-7-0--|
A|-5-5---5-5-5-0--|
E|----------------|



||Dist Off      			    Dist On     
|| B5 					     D5
||         Come on over (and) do the twist                     Arh-
e|-----------------------------------0-----|----------------------|
B|-----------------------------------0-0---|----------------------|
G|-------------------------------------0---|-7--7---7-7-7-7---7-7-|
D|-9-9-9-9---9-9-9-9---9-9-9-9---9-9-9-0---|-7--7---7-7-7-7---7-7-|
A|-9-9-9-9---9-9-9-9---9-9-9-9---9-9-9-0---|-5--5---5-5-5-5---5-5-|
E|-7-7-7-7---7-7-7-7---7-7-7-7---7-7-7-----|----------------------|
||               ||
||               ||
||-hhhhhhaaaaaaa ||
e|----------------|
B|----------------|
G|-7-7---7-7-7-0--|
D|-7-7---7-7-7-0--|
A|-5-5---5-5-5-0--|
E|----------------|



::CHORUS ONE::
||				        ||
|| F#   G# A     Bb  B      Bb A        || 
|| 	             Beat me outtta me  ||
e|---------------------------------------|
B|---------------------------------------|
G|---------------------------------------|
D|-4-4--6--7---7-8---9-9-9--8--7-7-7-0---|
A|-4-4--6--7---7-8---9-9-9--8--7-7-7-0---|
E|-2-2--4--5---5-6---7-7-7--6--5-5-5-0---|
||				        ||
|| F#   G# A     Bb  B      Bb A        || 
|| 	             Beat me outtta me  ||
e|---------------------------------------|
B|---------------------------------------|
G|---------------------------------------|
D|-4-4--6--7---7-8---9-9-9--8--7-7-7-0---|
A|-4-4--6--7---7-8---9-9-9--8--7-7-7-0---|
E|-2-2--4--5---5-6---7-7-7--6--5-5-5-0---| 
||				        ||
|| F#   G# A     Bb  B      Bb A        || 
|| 	             Beat me outtta me  ||
e|---------------------------------------|
B|---------------------------------------|
G|---------------------------------------|
D|-4-4--6--7---7-8---9-9-9--8--7-7-7-0---|
A|-4-4--6--7---7-8---9-9-9--8--7-7-7-0---|
E|-2-2--4--5---5-6---7-7-7--6--5-5-5-0---|
||				        ||
|| F#   G# A     Bb  B      Bb A        || 
|| 	             Beat me outtta me  ||
e|---------------------------------------|
B|---------------------------------------|
G|---------------------------------------|
D|-4-4--6--7---7-8---9-9-9--8--7-7-7-0---|
A|-4-4--6--7---7-8---9-9-9--8--7-7-7-0---|
E|-2-2--4--5---5-6---7-7-7--6--5-5-5-0---|
||				        ||
|| F#   G# A     Bb  B      Bb A        || 
|| 	             Beat me outtta me  ||
e|---------------------------------------|
B|---------------------------------------|
G|---------------------------------------|
D|-4-4--6--7---7-8---9-9-9--8--7-7-7-0---|
A|-4-4--6--7---7-8---9-9-9--8--7-7-7-0---|
E|-2-2--4--5---5-6---7-7-7--6--5-5-5-0---|
||				        ||
|| F#   G# A     Bb  B      Bb A        || 
|| 	             Beat me outtta me  ||
e|---------------------------------------|
B|---------------------------------------|
G|---------------------------------------|
D|-4-4--6--7---7-8---9-9-9--8--7-7-7-0---|
A|-4-4--6--7---7-8---9-9-9--8--7-7-7-0---|
E|-2-2--4--5---5-6---7-7-7--6--5-5-5-0---| 
||				        ||
|| F#   G# A     Bb  B      Bb A        || 
|| 	             Beat me outtta me  ||
e|---------------------------------------|
B|---------------------------------------|
G|---------------------------------------|
D|-4-4--6--7---7-8---9-9-9--8--7-7-7-0---|
A|-4-4--6--7---7-8---9-9-9--8--7-7-7-0---|
E|-2-2--4--5---5-6---7-7-7--6--5-5-5-0---|
||					||
|| F#   G# A     Bb  B      Bb A        || 
|| 		     Beat me outta meea-||
e|---------------------------------------|
B|---------------------------------------|
G|---------------------------------------|
D|-4-4--6--7---7-8---9-9-9--8--7-7-7-0---|
A|-4-4--6--7---7-8---9-9-9--8--7-7-7-0---|
E|-2-2--4--5---5-6---7-7-7--6--5-5-5-0---| 



::VERSE TWO::
||Dist Off      			    Dist On     
|| B5 					    D5
||aaah      Come on over (and) do the twist                    Arh-
e|-----------------------------------0-----|----------------------|
B|-----------------------------------0-0---|----------------------|
G|-------------------------------------0---|-7--7---7-7-7-7---7-7-|
D|-9-9-9-9---9-9-9-9---9-9-9-9---9-9-9-0---|-7--7---7-7-7-7---7-7-|
A|-9-9-9-9---9-9-9-9---9-9-9-9---9-9-9-0---|-5--5---5-5-5-5---5-5-|
E|-7-7-7-7---7-7-7-7---7-7-7-7---7-7-7-----|----------------------|
||               ||
||               ||
||-hhhhhhaaaaaaa ||
e|----------------|
B|----------------|
G|-7-7---7-7-7-0--|
D|-7-7---7-7-7-0--|
A|-5-5---5-5-5-0--|
E|----------------|


||Dist Off      		            Dist On     
|| B5 					    D5
||            Over do it__ and have a fit                     Arh-
e|-----------------------------------0-----|----------------------|
B|-----------------------------------0-0---|----------------------|
G|-------------------------------------0---|-7--7---7-7-7-7---7-7-|
D|-9-9-9-9---9-9-9-9---9-9-9-9---9-9-9-0---|-7--7---7-7-7-7---7-7-|
A|-9-9-9-9---9-9-9-9---9-9-9-9---9-9-9-0---|-5--5---5-5-5-5---5-5-|
E|-7-7-7-7---7-7-7-7---7-7-7-7---7-7-7-----|----------------------|
||               ||
||               ||
||-hhhhhhaaaaaaa ||
e|----------------|
B|----------------|
G|-7-7---7-7-7-0--|
D|-7-7---7-7-7-0--|
A|-5-5---5-5-5-0--|
E|----------------|


||Dist Off      		            Dist On     
|| B5 					    D5
||       Love you so much it makes me sick                    Arh-
e|-----------------------------------0-----|----------------------|
B|-----------------------------------0-0---|----------------------|
G|-------------------------------------0---|-7--7---7-7-7-7---7-7-|
D|-9-9-9-9---9-9-9-9---9-9-9-9---9-9-9-0---|-7--7---7-7-7-7---7-7-|
A|-9-9-9-9---9-9-9-9---9-9-9-9---9-9-9-0---|-5--5---5-5-5-5---5-5-|
E|-7-7-7-7---7-7-7-7---7-7-7-7---7-7-7-----|----------------------|
||               ||
||               ||
||-hhhhhhaaaaaaa ||
e|----------------|
B|----------------|
G|-7-7---7-7-7-0--|
D|-7-7---7-7-7-0--|
A|-5-5---5-5-5-0--|
E|----------------|


||Dist Off      		           Dist On     
|| B5 				            D5
||        Come on over (and) shoot the shit                    Arh-
e|-----------------------------------0-----|----------------------|
B|-----------------------------------0-0---|----------------------|
G|-------------------------------------0---|-7--7---7-7-7-7---7-7-|
D|-9-9-9-9---9-9-9-9---9-9-9-9---9-9-9-0---|-7--7---7-7-7-7---7-7-|
A|-9-9-9-9---9-9-9-9---9-9-9-9---9-9-9-0---|-5--5---5-5-5-5---5-5-|
E|-7-7-7-7---7-7-7-7---7-7-7-7---7-7-7-----|----------------------|
||               ||
||               ||
||-hhhhhhaaaaaaa ||
e|----------------|
B|----------------|
G|-7-7---7-7-7-0--|
D|-7-7---7-7-7-0--|
A|-5-5---5-5-5-0--|
E|----------------|


::CHOURS TWO::
||				        ||
|| F#   G# A     Bb  B      Bb A        || 
|| 	             Beat me outtta me  ||
e|---------------------------------------|
B|---------------------------------------|
G|---------------------------------------|
D|-4-4--6--7---7-8---9-9-9--8--7-7-7-0---|
A|-4-4--6--7---7-8---9-9-9--8--7-7-7-0---|
E|-2-2--4--5---5-6---7-7-7--6--5-5-5-0---|
||				        ||
|| F#   G# A     Bb  B      Bb A        || 
|| 	             Beat me outtta me  ||
e|---------------------------------------|
B|---------------------------------------|
G|---------------------------------------|
D|-4-4--6--7---7-8---9-9-9--8--7-7-7-0---|
A|-4-4--6--7---7-8---9-9-9--8--7-7-7-0---|
E|-2-2--4--5---5-6---7-7-7--6--5-5-5-0---|
||				        ||
|| F#   G# A     Bb  B      Bb A        || 
|| 	             Beat me outtta me  ||
e|---------------------------------------|
B|---------------------------------------|
G|---------------------------------------|
D|-4-4--6--7---7-8---9-9-9--8--7-7-7-0---|
A|-4-4--6--7---7-8---9-9-9--8--7-7-7-0---|
E|-2-2--4--5---5-6---7-7-7--6--5-5-5-0---|
||				        ||
|| F#   G# A     Bb  B      Bb A        || 
|| 	             Beat me outtta me  ||
e|---------------------------------------|
B|---------------------------------------|
G|---------------------------------------|
D|-4-4--6--7---7-8---9-9-9--8--7-7-7-0---|
A|-4-4--6--7---7-8---9-9-9--8--7-7-7-0---|
E|-2-2--4--5---5-6---7-7-7--6--5-5-5-0---|
||				        ||
|| F#   G# A     Bb  B      Bb A        || 
|| 	             Beat me outtta me  ||
e|---------------------------------------|
B|---------------------------------------|
G|---------------------------------------|
D|-4-4--6--7---7-8---9-9-9--8--7-7-7-0---|
A|-4-4--6--7---7-8---9-9-9--8--7-7-7-0---|
E|-2-2--4--5---5-6---7-7-7--6--5-5-5-0---|
||				        ||
|| F#   G# A     Bb  B      Bb A        || 
|| 	             Beat me outtta me  ||
e|---------------------------------------|
B|---------------------------------------|
G|---------------------------------------|
D|-4-4--6--7---7-8---9-9-9--8--7-7-7-0---|
A|-4-4--6--7---7-8---9-9-9--8--7-7-7-0---|
E|-2-2--4--5---5-6---7-7-7--6--5-5-5-0---|
||				        ||
|| F#   G# A     Bb  B      Bb A        || 
|| 	             Beat me outtta me  ||
e|---------------------------------------|
B|---------------------------------------|
G|---------------------------------------|
D|-4-4--6--7---7-8---9-9-9--8--7-7-7-0---|
A|-4-4--6--7---7-8---9-9-9--8--7-7-7-0---|
E|-2-2--4--5---5-6---7-7-7--6--5-5-5-0---|
||				        ||
|| F#   G# A     Bb  B      Bb A        || 
|| 		     Beat me outtta mea-||
e|---------------------------------------|
B|---------------------------------------|
G|---------------------------------------|
D|-4-4--6--7---7-8---9-9-9--8--7-7-7-0---|
A|-4-4--6--7---7-8---9-9-9--8--7-7-7-0---|
E|-2-2--4--5---5-6---7-7-7--6--5-5-5-0---|


::BRIDGE::
||								  ||
||N.C								  ||
||aaah								  ||
e|-----------------------------------------------------------------|
B|-----------------------------------------------------------------|
G|-3-3-3-3-3-3-3-3/4-4-4-4-4-4-4-4/5-5-5-5-5-5-5-5/6-6-6-6-6-6-6-6/|
D|-----------------------------------------------------------------|
A|-----------------------------------------------------------------|
E|-----------------------------------------------------------------|
||							          ||
||						                  ||
||								  ||
e|-----------------------------------------------------------------|
B|-----------------------------------------------------------------|
G|7-7-7-7-7-7-7-7/8-8-8-8-8-8-8-8/9-9-9-9-9-9-9-9/10-10-10-10-10-10|
D|-----------------------------------------------------------------|
A|-----------------------------------------------------------------|
E|-----------------------------------------------------------------|
||								  ||
||								  ||
||						                  ||
e|-----------------------------------------------------------------|
B|-----------------------------------------------------------------|
G|10-10/11-11-11-11-11-11-11-11/12-12-12-12-12-12-12-12/13-13-13-13|
D|-----------------------------------------------------------------|
A|-----------------------------------------------------------------|
E|-----------------------------------------------------------------|
||			        ||
||		                ||
||Aaaaaaaarrrrrrrhhhhhhhhhhhhhhhh|
e|--------15-15-15-15-15-15-15--0|
B|--------14-14-14-14-14-14-14--0|
G|13-13---13-13-13-13-13-13-13--0|
D|------------------------------0|
A|-------------------------------|
E|-------------------------------|


||						                        ||
|| F#5     C5       B5      A5         F#5     C5        B5      A5     ||
||hhhhhhhhhhhhhhhhhhhhhhhhhhhhhhhhhhhhhhhhhhhhhhhhhhhhh!		||
e|-----------------------------------|-----------------------------------|
B|-----------------------------------|-----------------------------------|
G|---------5-5-5-0--4-4-4-0--2-2-2-0-|---------5-5-5-0--4-4-4-0--2-2-2-0-|
D|-4--4-0--5-5-5-0--4-4-4-0--2-2-2-0-|-4--4-0--5-5-5-0--4-4-4-0--2-2-2-0-|
A|-4--4-0--3-3-3-0--2-2-2-0--0-0-0-0-|-4--4-0--3-3-3-0--2-2-2-0--0-0-0-0-|
E|-2--2-0----------------------------|-2--2-0----------------------------|
||					       ||
|| F#5     C5           B5           A5        ||
||        She keeps it pumping straigt to my heart
e|----------------------------------------------|
B|----------------------------------------------|
G|---------5--5--5--0---4--4--4--0---2--2--2--0-|
D|-4--4-0--5--5--5--0---4--4--4--0---2--2--2--0-|
A|-4--4-0--3--3--3--0---2--2--2--0---0--0--0--0-|
E|-2--2-0---------------------------------------|
||					       ||
|| F#5     C5           B5           A5        ||
||        She keeps it pumping straigt to my heart
e|----------------------------------------------|
B|----------------------------------------------|
G|---------5--5--5--0---4--4--4--0---2--2--2--0-|
D|-4--4-0--5--5--5--0---4--4--4--0---2--2--2--0-|
A|-4--4-0--3--3--3--0---2--2--2--0---0--0--0--0-|
E|-2--2-0---------------------------------------|
||					       ||
|| F#5     C5           B5           A5        ||
||        She keeps it pumping straigt to my heart
e|----------------------------------------------|
B|----------------------------------------------|
G|---------5--5--5--0---4--4--4--0---2--2--2--0-|
D|-4--4-0--5--5--5--0---4--4--4--0---2--2--2--0-|
A|-4--4-0--3--3--3--0---2--2--2--0---0--0--0--0-|
E|-2--2-0---------------------------------------|
||					       ||
|| F#5     C5           B5           A5        ||
||        She keeps it pumping straigt to my heart
e|----------------------------------------------|
B|----------------------------------------------|
G|---------5--5--5--0---4--4--4--0---2--2--2--0-|
D|-4--4-0--5--5--5--0---4--4--4--0---2--2--2--0-|
A|-4--4-0--3--3--3--0---2--2--2--0---0--0--0--0-|
E|-2--2-0---------------------------------------|
||					       ||
|| F#5     C5           B5           A5        ||
||        She keeps it pumping straigt to my heart
e|----------------------------------------------|
B|----------------------------------------------|
G|---------5--5--5--0---4--4--4--0---2--2--2--0-|
D|-4--4-0--5--5--5--0---4--4--4--0---2--2--2--0-|
A|-4--4-0--3--3--3--0---2--2--2--0---0--0--0--0-|
E|-2--2-0---------------------------------------|
||					       ||
|| F#5     C5           B5           A5        ||
||        She keeps it pumping straigt to my heart
e|----------------------------------------------|
B|----------------------------------------------|
G|---------5--5--5--0---4--4--4--0---2--2--2--0-|
D|-4--4-0--5--5--5--0---4--4--4--0---2--2--2--0-|
A|-4--4-0--3--3--3--0---2--2--2--0---0--0--0--0-|
E|-2--2-0---------------------------------------|
||					       ||
|| F#5     C5           B5           A5        ||
||        She keeps it pumping straigt to my heart
e|----------------------------------------------|
B|----------------------------------------------|
G|---------5--5--5--0---4--4--4--0---2--2--2--0-|
D|-4--4-0--5--5--5--0---4--4--4--0---2--2--2--0-|
A|-4--4-0--3--3--3--0---2--2--2--0---0--0--0--0-|
E|-2--2-0---------------------------------------|
||					       ||
|| F#5     C5           B5           A5        ||
||        She keeps it pumping straigt to my heart__
e|----------------------------------------------|
B|----------------------------------------------|
G|---------5--5--5--0---4--4--4--0---2--2--2--0-|
D|-4--4-0--5--5--5--0---4--4--4--0---2--2--2--0-|
A|-4--4-0--3--3--3--0---2--2--2--0---0--0--0--0-|
E|-2--2-0---------------------------------------|


::OUTRO::
||
||N.C
||______
e|-----------------------------------------------------------------|
B|-----------------------------------------------------------------|
G|-3-3-3-3-3-3-3-3/4-4-4-4-4-4-4-4/5-5-5-5-5-5-5-5/6-6-6-6-6-6-6-6/|
D|-----------------------------------------------------------------|
A|-----------------------------------------------------------------|
E|-----------------------------------------------------------------|
||								  ||
||						                  ||
||								  ||
e|-----------------------------------------------------------------|
B|-----------------------------------------------------------------|
G|7-7-7-7-7-7-7-7/8-8-8-8-8-8-8-8/9-9-9-9-9-9-9-9/10-10-10-10-10-10|
D|-----------------------------------------------------------------|
A|-----------------------------------------------------------------|
E|-----------------------------------------------------------------|
||	    Bit of feedback from dist and guitar		  ||
||          |							  ||
||	    V							  ||
e|-----------------------------------------------------------------|
B|-----------------------------------------------------------------|
G|10-10//12---12---12---12---12---12---12---12~~~~~~~~~~~~~~~~~~~~~|
D|-----------------------------------------------------------------|
A|-----------------------------------------------------------------|
E|-----------------------------------------------------------------|


Finish from noise of feedback and strings agaist fretboard




26/12/04 - made lyric corrections pointed out by Steven Harris

Any tab requests/queries/corrections or questions send all mail to:

-----------------------------------------------------------------------------
			        	Key
-----------------------------------------------------------------------------
| /  slide up
| \  slide down
| h  hammer-on
| p  pull-off
| ~  vibrato
| +  harmonic
| x  Mute note





Comments


Popular Nirvana tabs & chords
Junkyard Bass Tabs
Polly Unplugged Chords
Drain You 1 Drum Tabs
Anuerysm 2 Tabs
Big Long Now Tabs
I Hate Myself And Want To Die Tabs
On A Plain 3 Tabs
Polly All Versions Tabs
Lounge Act Ukulele
Mr Moustache Ukulele


Song lyrics



↑ Back to top | Tablatures and chords are parodies/interpretations of the original songs. You may use it for private study, scholarship, research or language learning purposes only
© 2014 AZChords.com Contact us | Privacy policy | DMCA | Add/correct tabs | Request tabs | Top 50 tabs