» » »

Aero Zeppelin Tabs (ver.5)

Artists:  A B C D E F G H I J K L M N O P Q R S T U V W X Y Z # 

Aero Zeppelin Tabs (ver.5)

Nirvana
Rating:
5/5 (2 votes)

Hard to play? Try these video lessons and learn fast.
                


intro:                         
|------0-0--------------------0-0--------0---|
|-----------3----3-----------------3---3-----|
|--------------3---3-----------------3-------| X5
|--------------------------------------------|
|--------------------------------------------|
|-0-0--------------------0-0-----------------|
                       			             	
--------------0-0------------|
|------------------3--3------|
|--------------------3--3----|
|----------------------------| X1
|----------------------------|
|-------0-0------------------|

|-------------------|
|----------3-3------|
|---------------3---|
|-------------------| X2
|-------------------|
|-----0-0-----------|			   

|------0-0--------------------0-0--------0---|
|-----------3----3-----------------3---3-----|
|--------------3---3-----------------3-------| X5
|--------------------------------------------|
|--------------------------------------------|
|-0-0--------------------0-0-----------------|

        
|----------3-3-------|
|--------------3-----| 
|--------------------|
|--------------------| X4
|--------------------|
|------0-0-----------|



|------------------------------------------|
|------------------------------------------|
|------------------------------------------|
|------------------------------------------| X4
|------2-2-2/5-5----------2-2/1---1--------|
|-0-0------------------0-0------3---3------|


|---------------------------------------------------|
|---------------------------------------------------|
|---------------------------------------------------|
|----------------0-0-0-2-2--------------------------| X4
|-2-2-2-2-2-2--------------4-0--3-----2----1-3------|
|----------------------------------4-----3----------|


|-------------------------|
|-------------------------|
|-------------------------|
|-------------------------| X3
|-4-0--3----2----1-3------|
|---------4----3----------|
        

|---------------------------|
|---------------------------|
|---------------------------|
|---------------------------| X4
|---------------------------|
|--0-0-5-5-4-4-0-5-4--------|



|------------|
|------------|
|------------|
|------------| 
|-----0------|
|-----0------|

|---------------|
|---------------|
|---------------|
|---------------| X7
|---5---5---0---|
|---5---5---0---|
	 	
|---------------------------------------------------|
|---------------------------------------------------|
|---------------------------------------------------|
|----------------0-0-0-2-2--------------------------| X4
|-2-2-2-2-2-2--------------4-0--3-----2----1-3------|
|----------------------------------4-----3----------|


|-------------------------|
|-------------------------|
|-------------------------|
|-------------------------| X3
|-4-0--3----2----1-3------|
|---------4----3----------|

             
            
|---------------------------|
|---------------------------|
|---------------------------|
|---------------------------| X4
|---------------------------|
|--0-0-5-5-4-4-0-5-4--------|



|------------|
|------------|
|------------|
|------------| 
|-----0------|
|-----0------|

|---------------|
|---------------|
|---------------|
|---------------| X12
|---5---5---0---|
|---5---5---0---|

after this part chris plays the bass alone 
and after that kurt plays the sols
that i dont know about it

	          			
|------------------------------------------|
|------------------------------------------|
|------------------------------------------|
|------------------------------------------| X4
|------2-2-2/5-5----------2-2/1---1--------|
|-0-0------------------0-0------3---3------|


|---------------------------------------------------|
|---------------------------------------------------|
|---------------------------------------------------|
|----------------0-0-0-2-2--------------------------| X4
|-2-2-2-2-2-2--------------4-0--3-----2----1-3------|
|----------------------------------4-----3----------|


|-------------------------|
|-------------------------|
|-------------------------|
|-------------------------|
|-4-0--3----2----1-3------|
|---------4----3----------|
			
         
|------0-0--------------------0-0--------0---|
|-----------3----3-----------------3---3-----|
|--------------3---3-----------------3-------| 
|--------------------------------------------|
|--------------------------------------------|
|-0-0--------------------0-0-----------------|

well i think this is it, im not sure that its all correct,
but it sounds cool


     † MEHDI †
         †
            
Hard to play? Try these video lessons and learn fast. | Correct




comments powered by Disqus
↑ Back to top | Tablatures and chords are parodies/interpretations of the original songs. You may use it for private study, scholarship, research or language learning purposes only