>
 >
Aero Zeppelin 2

Aero Zeppelin 2 Guitar Tabs

Nirvana - Aero Zeppelin 2 chords, tabs, tablatures, lyrics

Guitar lessons | Add/correct | Request | Top 50 tabs Artists:  A B C D E F G H I J K L M N O P Q R S T U V W X Y Z 0-9

Aero Zeppelin 2 Guitar Tabs – Nirvana

CD, Sheet music, Poster

Do you like Aero Zeppelin 2? Share with your friends now
Bass TabsBass Tabs v2TabsTabs v2Tabs v3Tabs v4Tabs v5


Intro

Let ring----------------------------------------------------------------------
(clean)
-------0-0------------------------0--------0----------0--0----------------------|
-----------3-----3-------------3----3----3-----------------3----3---------------|
---------------3---3-----------3-------3----------------------3---3-------------|
--------------------------------------------------------------------------------|
-2-------------------------2-2--------------------2-----------------------------|
-0-------------------------0-0--------------------0-----------------------------|

Let ring----------------------------------------------------------------------
Verse

--------0---0---------0-------0-0--------0----------------0-------0-------------|
---------------3----3-------------3----3---------------3----3-----3-------------|
------------------3------------------3-----------------3-------3------3---------|
--------------------------------------------------------------------------------|
--2-2---------------------2-2---------------------2-2---------------------------|
--0-0---------------------0-0---------------------0-0---------------------------|

Let ring----------------------------------------------------------------------


-------------0-------0---------------0---------0------------0---------0---------|
--------3------3--3--3--3----------3--------3--3-3------3---3--3---3--3-3-------|
--------3---------3-----3--------------3----3----3------3------3---3----3-------|
--------------------------------------------------------------------------------|
--2-2------------------------2-2--------------------2-2-------------------------|
--0-0------------------------0-0--------------------0-0-------------------------|

let ring----------------------------------------------------------------------

-------0-0------------------------0--------0------------------------------------|
-----------3-----3-------------3----3----3---------------3----3-----------------|
---------------3---3-----------3-------3--------------------------3-------------|
--------------------------------------------------------------------------------|
-2-------------------------2---------------------2------------------------------|
-0-------------------------0---------------------0------------------------------|


let ring-------------------------------------------------------------------------|
---------------------------------------------------------------------------------|
----3----3------------3---3----------------3-----3--3----------------------------|
------------3----------------3-------------3--------3----------------------------|
---------------------------------------------------------------------------------|
-2---------------2--------------------2-----------------------0------------------|
-0---------------0--------------------0-----------------------0------------------|

interlude
let ring                                (distortion)
-------           --------              -------------        --------------------|
---------------------------------------------------------------------------------|
---------------------------------------------------------------------------------|
---------------------------------------------------------------------------------|
---------------------------------------------------------------------------------|
-2--2-2-/-5-5~~----2----2\1------1------2---2--2-/--5-5~~~----2--1-1------1------|
-0-----------------0----------3-----3---0---------------------0--------3----3----|

let ring
-------                                  -------------        -------------------|
---------------------------------------------------------------------------------|
---------------------------------------------------------------------------------|
---------------------------------------------------------------------------------|
---------------------------------------------------------------------------------|
-2--2-2-/-5-5~~----2----2\1------1------2---2--2-/--5-5~~~----2--1-1------1------|
-0-----------------0----------3-----3---0---------------------0--------3----3----|

Bridge

--------------------------------------------------------------------------------|
--------------------------------------------------------------------------------|
-----------------------7-7-7--9-9-\-7-------------------------------------------|
---7-/--9-9-9-9-\-7-x--7-7-7--9-9-\-7-------------------------------------------|
---7-/--9-9-9-9-\-7-x--5-5-5--7-7-\-5--3-----2-------1/2------------------------|
---5-/--7-7-7-7-\-5-x--------------------4-0---3--0-------0--1halfbend----------|
pm                                         -      -

--------------------------------------------------------------------------------|
--------------------------------------------------------------------------------|
-----------------------7-7-7--9-9-\-7-------------------------------------------|
---7-/--9-9-9-9-\-7-x--7-7-7--9-9-\-7-------------------------------------------|
---7-/--9-9-9-9-\-7-x--5-5-5--7-7-\-5--3-----2----------1-----------------------|
---5-/--7-7-7-7-\-5-x--------------------4-0---3--0--0----2-0--1halfbend-0------|
pm                                         -      -


--------------------------------------------------------------------------------|
--------------------------------------------------------------------------------|
-----------------------7-7-7--9-9-\-7-------------------------------------------|
---7-/--9-9-9-9-\-7-x--7-7-7--9-9-\-7-------------------------------------------|
---7-/--9-9-9-9-\-7-x--5-5-5--7-7-\-5--3-----2-------1/2------------------------|
---5-/--7-7-7-7-\-5-x--------------------4-0---3--0-------0--1halfbend-0--------|
pm                                         -      -


--------------------------------------------------------------------------------|
--------------------------------------------------------------------------------|
--------------------------------------------------------------------------------|
--------------------------------------------------------------------------------|
--3-------2----0--1-----------------------3-----0--2--3----1--------------------|
----4---0---3-------2--0---1halfbend--0-----4------------0---2--0-1halfbend---0-|

--------------------------------------------------------------------------------|
--------------------------------------------------------------------------------|
--------------------------------------------------------------------------------|
--------------------------------------------------------------------------------|
--3-------2----0--1-----------------------3-----0--2--3----1--------------------|
----4---0---3-------2--0---1halfbend--0-----4------------0---2--0-1halfbend---0-|


u cant really hear the 1 in the song but listen carefully and u can hear it
--------------------------------------------------------------------------------------------|
--------------------------------------------------------------------------------------------|
--------------------------------------------------------------------------------------------|
-----------------------------------------1--------------------------------------------1-----|
------1-----------------------------------------1-------------------------------------------|
---0-----4-1/4bend--4-1/4bend---0---0-4-----0--------4-1/4bend--4-1/4bend----0--0-4---------|

--------------------------------------------------------------------------------------------|
--------------------------------------------------------------------------------------------|
--------------------------------------------------------------------------------------------|
-----------------------------------------1--------------------------------------------1-----|
------1-----------------------------------------1-------------------------------------------|
---0-----4-1/4bend--4-1/4bend---0---0-4-----0--------4-1/4bend--4-1/4bend----0--0-4---------|


Verse
--------------------------------------------------------------------------------------------|
--------------------------------------------------------------------------------------------|
----------------3--3---------------------------------1---------------3--3-------------------|
--2-------------3--3------2-------------5--5---------2---------------3--3-------------------|
--2-------------1--1------2-------------5--5---------2---------------1--1-------------------|
--0-----------------------0-------------3--3---------0--------------------------------------|

---------------------------------------------------------------------------------------------|
---------------------------------------------------------------------------------------------|
---------------------------1---------------3--3----------------------------------------------|
2-------------5--5---------2---------------3--3-------2--------5-5---------------------------|
2-------------5--5---------2---------------1--1-------2--------5-5---------------------------|
0-------------3--3---------0--------------------------0--------3-3---------------------------|


-----------------------------------------------------|
-----------------------------------------------------|
--1--------------3--3---------1---------------3---3--|
--2--------------3--3---------2----------5----3---3--|
--2--------------1--1---------2----------5----1---1--|
--0---------------------------0----------3-----------|
                          feedback
                           ------------------------------------------|
---------------------------------------------------------------------|
---------------------------------------------------------------------|
---(1)--------------------(1)----------------------------------------|
---(2)--------------------(2)----------------------------------------|
---(2)--------------------(2)-----------------------------------/11--|
---(0)--------------------(0)----------------------------------------|


guitar solo(very screwed up but right, the only right solo on the net)


                        p.h---------------------------------------------------------|
-----------------------^------------------------------------------------------------|
-----11-1/4-bend------11-1-1/2-bend---(11)-fullbend----11~~~~-----------------------|
-----------------------------------------------------------------3--3---3full bend--|
------------------------------------------------------------------------------------|
------------------------------------------------------------------------------------|
------------------------------------------------------------------------------------|

                             p.h
------------------------------------------------------------------------------------------------------------|
-^----------------------------------------------------------------------------------------------------------|
-3---3-h-1-p-3-h-1-----------------0------------------------------------------------------------------------|
---------------------2----0---2-------2p0-------------------------------------------------------------------|
--------------------------------------------0---------------------------------------------------------------|
-----------------------------------------------4----(4)/0-----4---4fullbend---4fullbendthentohalfbend--(4)--|

                                                                p.h---
----------------------------------x/---x---x---x---x-----------------------------------------|
----------------------------------x/---------------------------------------------------------|
---------------------------------------------------------------------------------------------|
---------------------------------------------------------------------------------------------|
-------------------------------------------------------7~~~---7hp--9-9----9h7---9/10---9-10--|
--4~~~--1/2bend----4-1/4bend---0-------------------------------------------------------------|

-----------------------------------------------------------------------------------------------0----|
--------------------------------------------------------------------12--15-----------------------0--|
------------------------------------------12---14-------------------12--15-1/2bendboth---16~~~------|
----------------------------------12--14--12-------14~~~---------14----------------------16~~~~-----|
--10/h12---10---12---12h/14~~~~---12--14--------------------x---------------------------------------|
----------------------------------------------------------------------------------------------------|

                                  p.h-
--0--0--10--0--3---------------------4p0----3p0--0--5h3p0-----0----------------------------------|
------------------2---2~~~--0---1---------0---------------------3p(0)-3--x-----------------------|
---------------------------------------------------------------------------2-1/2b----------------|
------------------------------------------------------------------------------------2------------|
-------------------------------------------------------------------------------------------------|
---------------------------------------------------------------------------------------3fullb--0-|

         harm                       harm          p.h-
-------------------------------------------------------------------------------------------------------|
--------------------------------------------------------------------------------------7----------------|
-----------------------------------------------------------------------------------7--7--9--9~~--9--9--|
------------------------------------------------------7h9--9------9---9---9~~---9----------------------|
----------5-------------------5------4---5h7---7h9-----------------------------------------------------|
---4/5----------5/7------5h7---------------------------------------------------------------------------|


-------------^^----------------------------------------------|
-10fullb----10--fullb---(10)-------------------(12)----------|
------------10--1/2b----(10)-----10~~~~~~~~-----10------10/--|
-------------------------------------------------------------|
-------------------------------------------------------------|
-------------------------------------------------------------|

and u can figure the order out, enjoy the first FULL tab of this song





Comments


Popular Nirvana tabs & chords
Polly (new Wave) Drum Tabs
Blandest 3 Tabs
Freebird Tabs
Jesus Dont Wants Me Accordion Tabs
My Best Friends Girl Tabs
Return Of The Rat Tabs
Sad Tabs
Sappy 1 Tabs
Smells Like Teen Spirit Correct Tabs
Vaseline Cover Songs 1 Tabs


Song lyrics



↑ Back to top | Tablatures and chords are parodies/interpretations of the original songs. You may use it for private study, scholarship, research or language learning purposes only
© 2014 AZChords.com Contact us | Privacy policy | DMCA | Add/correct tabs | Request tabs | Top 50 tabs