» » »

Aero Zeppelin Bass tabs (ver.1)

Artists:  A B C D E F G H I J K L M N O P Q R S T U V W X Y Z # 

Aero Zeppelin Bass tabs (ver.1)

Nirvana
Rating:
3/5 (2 votes)

Hard to play? Try these video lessons and learn fast.
                
AERO ZEPPELIN (Bassline)
As recorded by Nirvana

	

Words and Music by Kurt Cobain

Gtr I (D# G# C# F#) - 'Untitled'

   Intro                                 Verse 1 & 2
    Moderate Rock Q=108
   4/4
    Gtr I
    S E. +H.        S E. +H.              S E. +H.        S E. +H.     8x
||----------------|----------------||-||----------------|--------------||
||o---------------|-2-2--(2)------o||-||o---------------|-2-2--(2)----o||
||o---------------|---------------o||-||o---------------|-------------o||
||--0-0--(0)------|----------------||-||--0-0--(0)------|--------------||


  S E. +H.          S E. +H.        S E. +H.     4x
|---------------||----------------|--------------||
|---------------||o---------------|-2-2--(2)----o||
|---------------||o---------------|-------------o||
|-0-0--(0)------||--0-0--(0)------|--------------||


  S E. +H.        S E. +H.        S E. +H.
|---------------|---------------|-------------|
|---------------|-2-2--(2)------|-------------|
|---------------|---------------|-------------|
|-0-0--(0)------|---------------|-0-0--(0)----|


   Bridge
    S S S S S S S s +S  s +S  s +S  S E    S E S S E S S E S E.  S  4x
||---------------------------------------|--------------------------||
||o--------------------------------------|-------------------------o||
||o---------------5-(5)-5-(5)-5-(5)-7-7\-|-3-----2-----1-----------o||
||--5S7-7-7-7S5-x------------------------|---4-0---3-0---2-0-1b2-0--||


        PM    PM
    S E S S E S S E S E.  S  3x     S E. S E   S   +S  E S E E  4x
||---------------------------||-||------------------------------||
||o-------------------------o||-||o----------------------------o||
||o-3-----2-----1-----------o||-||o------1-------------------1-o||
||----4-0---3-0---2-0-1b2-0--||-||--0-0----4b5-4b5-(4)-0-0-4----||


   Verse
    H.      E E   H.      S E S  4x
||--------------|----------------||
||o-------------|---------------o||
||o---------1-1-|---------------o||
||--0-----------|-0-------3-3----||


   Bridge
    S S S S S S S s +S  s +S  s +S  S E    S E S S E S S E S E.  S  4x
||---------------------------------------|--------------------------||
||o--------------------------------------|-------------------------o||
||o---------------5-(5)-5-(5)-5-(5)-7-7\-|-3-----2-----1-----------o||
||--5S7-7-7-7S5-x------------------------|---4-0---3-0---2-0-1b2-0--||


        PM    PM
    S E S S E S S E S E.  S  3x     S E. S E   S   +S  E S E E  4x
||---------------------------||-||------------------------------||
||o-------------------------o||-||o----------------------------o||
||o-3-----2-----1-----------o||-||o------1-------------------1-o||
||----4-0---3-0---2-0-1b2-0--||-||--0-0----4b5-4b5-(4)-0-0-4----||


   Verse
    H.      E E   H.      S E S  6x
||--------------|----------------||
||o-------------|---------------o||
||o---------1-1-|---------------o||
||--0-----------|-0-------3-3----||


   Guitar Solo
    E +S  S S S +S  S +S  S +S  S +S  S E
||----------------------------------------|
||o---------2-0-(0)-----------------------|
||o-----------------2-(2)-0-(0)---------1-|
||--0-(0)-0---------------------3-(3)-3---|


  E +S  S S S +S  S S S +S  S +S  S E 13x
|--------------------------------------||
|---------2-0-(0)---------------------o||
|-----------------2-1-0-(0)---------1-o||
|-0-(0)-0-------------------3-(3)-3----||


   Bridge
    S S S S S S S s +S  s +S  s +S  S E    S E S S E S S E S E.  S  4x
||---------------------------------------|--------------------------||
||o--------------------------------------|-------------------------o||
||o---------------5-(5)-5-(5)-5-(5)-7-7\-|-3-----2-----1-----------o||
||--5S7-7-7-7S5-x------------------------|---4-0---3-0---2-0-1b2-0--||


                                   Outro
        PM    PM
    S E S S E S S E S E.  S  3x     S E. +H.        S E. +H.
||---------------------------||-||----------------|--------------||
||o-------------------------o||-||o---------------|-2-2--(2)----o||
||o-3-----2-----1-----------o||-||o---------------|-------------o||
||----4-0---3-0---2-0-1b2-0--||-||--0-0--(0)------|--------------||


                          PM
   W          +W          H    H
|-----------|-----------|-----------*|
|-(2)-------|-(2)-------|-----------*|
|-----------|-----------|-----------*|
|-----------|-----------|-0---------*|



Duration Legend
---------------
W - whole; H - half; Q - quarter; E - 8th; S - 16th; T - 32nd; X - 64th; a - acciaccatura
+ - note tied to previous; . - note dotted; .. - note double dotted
Uncapitalized letters represent notes that are staccato (1/2 duration)
Irregular groupings are notated above the duration line
Duration letters will always appear directly above the note/fret number it represents the
duration for.  Duration letters with no fret number below them represent rests.  Multi-
bar rests are notated in the form Wxn, where n is the number of bars to rest for.  Low
melody durations appear below the staff

Tablature Legend
----------------
 h   - hammer-on
 p   - pull-off
 b   - bend
 pb  - pre-bend
 r   - bend release (if no number after the r, then release immediately)
 /\  - slide into or out of (from/to "nowhere")
 s   - legato slide
 S   - shift slide
 - natural harmonic
[n]  - artificial harmonic
n(n) - tapped harmonic
 ~   - vibrato
 tr  - trill
 T   - tap
 TP  - trem. picking
 PM  - palm muting
\n/  - tremolo bar dip; n = amount to dip
 \n  - tremolo bar down
 n/  - tremolo bar up
/n\  - tremolo bar inverted dip
 =   - hold bend; also acts as connecting device for hammers/pulls
 <> - volume swell (louder/softer)
 x   - on rhythm slash represents muted slash
 o   - on rhythm slash represents single note slash

Misc Legend
-----------
 |  - bar
||  - double bar
||o - repeat start
o|| - repeat end
*|  - double bar (ending)
 :  - bar (freetime)
 $  - Segno
 &  - Coda
Tempo markers -  = BPM(8/16=s8/s16), where s8 = swing 8ths, s16 = swing 16ths
            
Hard to play? Try these video lessons and learn fast. | Correct




comments powered by Disqus
↑ Back to top | Tablatures and chords are parodies/interpretations of the original songs. You may use it for private study, scholarship, research or language learning purposes only