» » »

Nirvana, About A Girl Tabs (ver.9)

Artists:  A B C D E F G H I J K L M N O P Q R S T U V W X Y Z # 

About A Girl Tabs (ver.9)

Nirvana Tabs
 Rating:
4/5 (4 votes)
About A Girl lessons Tabs too difficult? Try these video lessons and learn fast
1
                INTRO (x4)
E--------3-3-3-3-3-------
B--------0-0-0-0-0-------
G--------0-0-0-0-0-------
D--2-2---0-0-0-0-0-------
A--2-2---2-2-2-2-2-------
E--------3-3-3-3-3-------

VERSE(x12)
E--------3-3-3-3-3-------
B--------0-0-0-0-0-------
G--------0-0-0-0-0-------
D--2-2---0-0-0-0-0-------
A--2-2---2-2-2-2-2-------
E--------3-3-3-3-3-------

CHORUS
E-----------------------------------------------------------
B-----------------------------------------------------------
G--6-6----------------6-6----------------1-1--9-9--5-5-5-5--
D--6-6--6-6--5-5-5-5--6-6--6-6--5-5-5-5--2-2--9-9--5-5-5-5--
A--4-4--6-6--5-5-5-5--4-4--6-6--5-5-5-5--2-2--7-7--3-3-3-3--
E-------4-4--3-3-3-3-------4-6--3-3-3-3---------------------

REPEAT THE ABOVE AGAIN

SOLO (X4)
E------------------------------
B------------------------------
G--------0-2-2-2-2/4-4-7-7-7/2-
D----0-2-----------------------
A--2---------------------------
E--0---------------------------

AFTER SOLO REPEAT CHORUS THEN PLAY VERSE AND THEN THIS:
E-------------------------------------------------
B-------------------------------------------------
G--6-6----------------1-1--9-9--5-5-5-5--1-1--9-9-
D--6-6--6-6--5-5-5-5--2-2--9-9--5-5-5-5--2-2--9-9-
A--4-4--6-6--5-5-5-5--2-2--7-7--3-3-3-3--2-2--7-7-
E-------4-4--3-3-3-3------------------------------

E-----------------------------------
B-----------------------------------
G--5-5-5-5-5-5-5-5-5-5-5-5----------
D--5-5-5-5-5-5-5-5-5-5-5-5----------
A--3-3-3-3-3-3-3-3-3-3-3-3----------
E-----------------------------------

REPEAT VERSE
END
            
Submit corrections

comments powered by Disqus
↑ Back to top | Nirvana Tabs for About A Girl. Lyrics for acoustic guitar and electric guitar. 1 Tablatures and chords are parodies/interpretations of the original songs. You may use it for private study, scholarship, research or language learning purposes only