>
 >
About A Girl 2

About A Girl 2 Chords

Nirvana - About A Girl 2 chords, tabs, tablatures, lyrics

Guitar lessons | Add/correct | Request | Top 50 tabs Artists:  A B C D E F G H I J K L M N O P Q R S T U V W X Y Z 0-9

About A Girl 2 Chords – Nirvana

CD, Sheet music, Poster

Do you like About A Girl 2? Share with your friends now
Bass TabsBass Tabs v2Bass Tabs v3Bass Tabs v4Bass Tabs v5ChordsChords v2Chords v3Drum TabsTabsTabs v2Tabs v3Tabs v4Tabs v5Tabs v6Tabs v7Tabs v8Ukulele
/=play once. play to the durarations.

Em     G
/ ///  ///   Reapeat through out verses

Verse 1:I need an easy friend
I do, With an ear to lend
I do, Think you fit this shoe
I do, But DO you have a clue?

play this through this part:
C# G5 C G     Em
// /  / ///// /

Chorus:I'll take advantage while
You hang me out to dry
But I can't see you every night. Free
...I do

-through the "But I can't see you every night" part play:
C    Am  D*     *Bend
//// /// /
- Through the "Free...I do" part play the thing you play in the chorus.

Verse 2:I'm standing in your line
I do, Hope you have the time
I do, Pick up number two
I do, Keep a date with you

Then do the chorus...

Verse 3:I take advantage while
You hang me out to dry
But I can't see you every night. Free

Then the solo...
part C (lead):
beat|  1  +  2  +  3  +  4  + |  1  +  2  +      3  +  4  +  |
 crd|  E5          G          |  E5              G           |
   E|-------------------------|------------------------------|
   B|-------------------------|------------------------------|
   G|-------------------------|-----------------12--h-12--h\-|
   D|--------------5--7--7--7-|/(9)-9--9--9/(12)-h-12--h--h\-|
   A|--------5--7-------------|------------------------------|
   E|--0--h-------------------|------------------------------|
    (turn up distortion just before lead)
 
 
part D (coda):
beat|  1  +  2  +  3  +  4  + |  1  +  2  +  3  +  4  + |
 crd|  E5          E5'        |  A5       C5            |
   E|-------------------------|-------------------------|
   B|-------------------------|-------------------------|
   G|-----------x/-9--9--9--x-|-----------5--h--5--5--5-|
   D|--2--h--2--x/-9--9--9--x-|--7--7--7--5--h--5--5--5-|
   A|--2--h--2--x/-7--7--7--x-|--7--7--7--3--h--3--3--3-|
   E|--0--h--0----------------|--5--5--5----------------|
 
beat|  1  +  2  +  3  +  4  + |  1  +  2  + |
 crd|  C5                     |             |
   E|-------------------------|-------------|
   B|-------------------------|-------------|
   G|--5--5--5--5--5--5--5--5-|--5--5--5--x-|
   D|--5--5--5--5--5--5--5--5-|--5--5--5--x-|
   A|--3--3--3--3--3--3--3--3-|--3--3--3--x-|
   E|-------------------------|-------------|
                      (slows down a bit here)
 
 
part E (coda):
beat|  1  +  2  +  3  +  4  + |
 crd|  E5
   E|-------------------------|
   B|-------------------------|
   G|-------------------------|
   D|--2--h--h--h--h--h--h--h-| (hold for about four measures total)
   A|--2--h--h--h--h--h--h--h-|
   E|--0--h--h--h--h--h--h--h-|

Another way you can play the Chorus is:
beat|  1  +  2  +  3  +  4  + |  1  +  2  +  3  +  4  + |
 crd|  C#5         Ab5        |  F#5                    |
   E|-------------------------|-------------------------|
   B|-------------------------|-------------------------|
   G|--6--h--6--6-------------|-------------------------|
   D|--6--h--6--6--6--h--6--6-|--4--4-----4--h--4--4--x-|
   A|--4--h--4--4--6--h--6--6-|--4--4-----4--h--4--4--x-|
   E|--------------4--h--4--4-|--2--2-----2--h--2--2--x-|
 
beat|  1  +  2  +  3  +  4  + |  1  +  2  +  3  +  4  + |
 crd|  C#5         Ab5        |  F#5                    |
   E|-------------------------|-------------------------|
   B|-------------------------|-------------------------|
   G|--6--h--6--6-------------|-------------------------|
   D|--6--h--6--6--6--h--6--6-|--4--4-----4--h--4--4--x-|
   A|--4--h--4--4--6--h--6--6-|--4--4-----4--h--4--4--x-|
   E|--------------4--h--4--4-|--2--2-----2--h--2--2--x-|
 
beat|  1  +  2  +  3  +  4  + |  1  +  2  +  3  +  4  + |
 crd|  E5          E5'        |  A5       C5            |
   E|-------------------------|-------------------------|
   B|-------------------------|-------------------------|
   G|-----------x/-9--9--9--x-|-----------5--h--5--5--x-|
   D|--2--h--2--x/-9--9--9--x-|--7--7--7--5--h--5--5--x-|
   A|--2--h--2--x/-7--7--7--x-|--7--7--7--3--h--3--3--x-|
   E|--0--h--0----------------|--5--5--5----------------|

 
 
 
TAB Legend:
  h    = hold fretted note (or let open note ring), do not pick
  m/(n)= pick note at fret m, slide up to fret n (do not pick twice)
  n\   = pick note at fret n, slide down (to wherever)
  x    = pick string, but muffle with finger so note doesn't sound





Comments


Popular Nirvana tabs & chords
Lake Of Fire 4 Bass Tabs
Milk It Bass Tabs
Polly 3 Chords
(New Wave) Polly Tabs
Cocaine Girl 1 Tabs
Even In His Youth 4 Tabs
Lake Of Fire 6 Tabs
Smells Like Teen Spirit 1 Tabs
The Money Will Roll Tabs
In Bloom Ukulele


Song lyrics



↑ Back to top | Tablatures and chords are parodies/interpretations of the original songs. You may use it for private study, scholarship, research or language learning purposes only
© 2014 AZChords.com Contact us | Privacy policy | DMCA | Add/correct tabs | Request tabs | Top 50 tabs