» » »

Nirvana, About A Girl Bass tabs (ver.4)

Artists:  A B C D E F G H I J K L M N O P Q R S T U V W X Y Z # 

About A Girl Bass tabs (ver.4)

Nirvana Tabs
Rating:
5/5 (2 votes)
About A Girl lessons Tabs too difficult? Try these video lessons and learn fast
                #------------------------------------------------------------------------------##

Nirvana - "About A Girl"
 
Intro
 
G|-----------------------------|
D|*---------------------------*|
A|*---------------------------*|
E|--0-0-0-3-3-3-0-0-0-3-3-3-3--|
 
Verses:
 
G|---------------------------|
D|*-----------------5-5-5-5-*|
A|*-------------5/7---------*|
E|--0-0-0-3-3-3--------------|
 
Chorus:
 
G|-------------------------------------------------------------------|
D|-----------------------------------4-4-4-4-4-----------------------|
A|-4-4-4-----------------4-4-4-----------------------7-7-7---3-3-3-3-|
E|-------4-4-4-2-2-2-2-2-------4-4-4-----------0-0-0-------5---------|


Andy Martone					We stand alone	
            
Submit corrections

comments powered by Disqus
↑ Back to top | Nirvana Bass for About A Girl. Lyrics for acoustic guitar and electric guitar. Tablatures and chords are parodies/interpretations of the original songs. You may use it for private study, scholarship, research or language learning purposes only