» » »

Nirvana, About A Girl Bass tabs (ver.3)

Artists:  A B C D E F G H I J K L M N O P Q R S T U V W X Y Z # 

About A Girl Bass tabs (ver.3)

Nirvana Tabs
Rating:
5/5 (25 votes)
About A Girl lessons Tabs too difficult? Try these video lessons and learn fast
                |---------------------------------------------------------------|
|---------------------------------------------------------------|
|---------------------------------------------------------------|
|-0--0-0-3--3-3--0--0-0-3-3-3-3--0--0-0-3-3-3-3--0--0-0-3-3-3-3-|

   Verse
|----------------------------------------------------------------------|
|------------------------5------4---------------------------5------4---|
|---------------5/7----7------6---5----------------5/7----7------6---5-|
|-0--0-0-3--3-3----------------------0--0-0-3--3-3---------------------|

|----------------------------------------------------------------------|
|-------------------------5------4--------------------------5------4---|
|----------------5/7----7------6---5---------------5/7----7------6---5-|
|-0--0-0--3--3-3----------------------0--0-0-3-3-3---------------------|

  Chorus
|-------------------------------------------------------------------|
|-------------------------------------------------------------------|
|4--4-4------------------------------4--4-4-------------------------|
|-------4----4-4--2----0-2----2-2-0---------4----4-4-2--2-2----2-2--|

|----------------------------------------------------------------|
|----------------------------------------------------------------|
|-----------7----7-------------3----3--3--3----------------------|
|-0----0-0------------5--5--5----------------0--0--0--3--3--3--3-|

  Guitar Solo
|----------------------------------------------------------------|
|------------------------------5------4--------------------------|
|---------------------5/7----7------6---5---4----4--4------------|
|-0----0--0--3--3--3-----------------------------------4----4--4-|

|-----------------------------------------------------------------|
|-----------------------------------------------------------------|
|------------------------4----4--4--------------------------------|
|-2----0--2----2--2--0--------------4----4--4---2----0--2----2--2-|
            
Submit corrections

comments powered by Disqus
↑ Back to top | Nirvana Bass for About A Girl. Lyrics for acoustic guitar and electric guitar. Tablatures and chords are parodies/interpretations of the original songs. You may use it for private study, scholarship, research or language learning purposes only