» » »

Nintendo, Song Of Storms Tabs (ver.1)

Artists:  A B C D E F G H I J K L M N O P Q R S T U V W X Y Z # 

Song Of Storms Tabs (ver.1)

Nintendo Tabs
 Rating:
4/5 (4 votes)
Song Of Storms lessons Tabs too difficult? Try these video lessons and learn fast
1
                song of storms


legend of zelda






e:-------23--------23---23-24-23-24--20------|
B:----19--------19-----------------------22--|
G:-20--------20------------------------------|
D:-------------------------------------------|
A:-------------------------------------------|
E:-------------------------------------------|

:-------23--------23---23-24-23-24--20------|
B:----19--------19-----------------------22--|
G:-20--------20------------------------------|
D:-------------------------------------------|
A:-------------------------------------------|
E:-------------------------------------------|

:-------23--------23---23-24-23-24--20------|
B:----19--------19-----------------------22--|
G:-20--------20------------------------------|
D:-------------------------------------------|
A:-------------------------------------------|
E:-------------------------------------------|
            
Submit corrections

comments powered by Disqus
↑ Back to top | Nintendo Tabs for Song Of Storms. Lyrics for acoustic guitar and electric guitar. 1 Tablatures and chords are parodies/interpretations of the original songs. You may use it for private study, scholarship, research or language learning purposes only