» » »

Nintendo, Sariass Song Tabs (ver.1)

Artists:  A B C D E F G H I J K L M N O P Q R S T U V W X Y Z # 

Sariass Song Tabs (ver.1)

Nintendo Tabs
Rating:
0/5 (0 votes)
Sariass Song lessons Tabs too difficult? Try these video lessons and learn fast
                e:-------------------------------------------------------------------------------
b:------------------------------------------------5---3---0-------------------------
g:-------2---4--------2---4----------2--4------------------5----4--0-----------------
d:--3-------------3-------------3-------------------------------------2--0--3--5--2-
a:------------------------------------------------------------------------------
e:-------------------------------------------------------------------------------


e:-------------------------------------------------------------------------------
b:-----------------------------------5--3--0--------6---11---------------10----------
g:------2--4-------2-4-------2-4-------------5--------------10--or --------9---------
d:--3-----------3---------3---------------------------------------------------------
a:-------------------------------------------------------------------------------
e:-------------------------------------------------------------------------------

            THANK YOU!!!!!!!  
All of the songs in every zelda game are absolutely wonderful
            

comments powered by Disqus
↑ Back to top | Nintendo Tabs for Sariass Song. Lyrics for acoustic guitar and electric guitar. Tablatures and chords are parodies/interpretations of the original songs. You may use it for private study, scholarship, research or language learning purposes only