» » »

Wanna Be Tabs (ver.1)

Artists:  A B C D E F G H I J K L M N O P Q R S T U V W X Y Z # 

Wanna Be Tabs (ver.1)

Nine Days
Rating:
0/5 (0 votes)

Hard to play? Try these video lessons and learn fast.
                Wanna Be" by NINE DAYS

(Down-tuned half step)

---GUITAR INTRO, VERSES AND CHORUS
D#------0----------------------------------------
A#----0---0-----0-4-0--------2--------2-0-2--
F#---------------------------4---4---------------
C#--2---------1----------------------------------
G#------------------------2----------4-----------
D#------------------------------------------------

---PIANO SOLO
D#-12-11-9-----------------------------------------------
A#-----------12-10-9-------------------------------------
F#---------------------11-9-------------------------------
C#---------------------------13-11-9---------------------
G#-------------------------------------12-11-9-----------
D#-----------------------------------------------12-11---

---GUITAR SOLO
D#---------------------------------------------------------------------------------------------------------------------------
A#---------------------------------------------------------------------------------------------------------------------------
F#-------------4--------4-4---4/6----------------------------4-------4-6----(4-4)-4---4----6-4----------------4------
C#------2-4-6---6---6------6-------6-4-2--6--------2-4-6---6---6------------------6---6-------6-4-2-4-2-6---42--
G#-2-4---------------------------------------------2-4----------------------------------------------------------------------
D#---------------------------------------------------------------------------------------------------------------------------

---BRIDGE, PIANO (ON SECOND TIME, ALL CHORDS x2)
D#-------------------
A#-------------------
F#-------------------
C#-------------------
G#-6--7--4--7777--
D#-4--5--2--5555--

---PIANO IN CHORUS
D#------------------------------
A#------------------------------
F#------------------------------
C#-----6--4--2------6--4--2--
G#-2--4--2--0---2--4--2--0--
D#-0--------------0------------

---PIANO @ END OF GUITAR SOLO
D#---------------
A#---------------
F#---------------
C#-6--4---------
G#-4--2--6--7--
D#--------4--5--
This should look ok on your screen if you use Word Pad or a simple typing 
program like that. If not, sorry.
 
 


--------------------------------------------------------------------------------
            
Hard to play? Try these video lessons and learn fast. | Correct




comments powered by Disqus
↑ Back to top | Tablatures and chords are parodies/interpretations of the original songs. You may use it for private study, scholarship, research or language learning purposes only