» » »

Moment Chords (ver.2)

Artists:  A B C D E F G H I J K L M N O P Q R S T U V W X Y Z # 

Moment Chords (ver.2)

Nine Days
Rating:
5/5 (1 vote)

Tabs too difficult? Try these video lessons and learn fast.
                okay this is the correct way to play this song by nine days , its a little tricky 
to figure out at first but i eventually figured it out.

-------------------------------------------------------------------------------
                             SONG NAME - Band Name
-------------------------------------------------------------------------------

Tuning:standard

        x4        x4         x4         x4            repeat till chorus
e|--2---------3----------2---------0---------------------------------------------|
B|--3---------3----------3---------3---------------------------------------------|
G|--2---------0----------4---------2---------------------------------------------|
D|--0---------0----------4---------2---------------------------------------------|
A|------------2----------2---------0---------------------------------------------|
E|------------3----------2-------------------------------------------------------|

chorus    

e|----3-------0----------------------------------------------------------------|
B|----3-------2----------------------------------------------------------------|
G|----0-------2----------------------------------------------------------------|
D|----0-------2----------------------------------------------------------------|
A|----2-------0----------------------------------------------------------------|
E|----3------------------------------------------------------------------------|




| /  slide up
| \  slide down
| h  hammer-on
| p  pull-off
| ~  vibrato
| +  harmonic
| x  Mute note
===============================================================================
            
Tabs too difficult? Try these video lessons and learn fast.




comments powered by Disqus
↑ Back to top | Tablatures and chords are parodies/interpretations of the original songs. You may use it for private study, scholarship, research or language learning purposes only