» » »

Sometimes Chords (ver.1)

Artists:  A B C D E F G H I J K L M N O P Q R S T U V W X Y Z # 

Sometimes Chords (ver.1)

Nine Days
Rating:
2/5 (3 votes)
Tabs too difficult? Try these video lessons and learn fast.
                Nine days- Sometimes....  CAPO 2... this is such a great song, good luck guys!

       D             D

-2-2-0-0-0-3-2------2-2-0-0-0-3-3------------------|
-3-3-3-3-3-3-3-3----3-3-3-3-3-3-3-3----------------|
-2-2-2-2-2-2-2-2----2-2-2-2-2-2-2-2----------------|    (2X) and repeats while other
---------------------------------------------------|            instruments come in..
---------------------------------------------------|
---------------------------------------------------|
 (i will call this tab *D* so it'll be easier to tab with the lyrics underneath)

continue tab *D* THRU THESE WORDS....

Shadows they fall on the stage of your own life
Trailing behind footsteps
There's comfort in ghosts who are no longer with you
Hiding behind your death

(D)
----2----------|
--------3------|   "....I let you down, you've lost your own taste .."
-----2---------|
-0-------------|
---------------|
---------------|

(Dsus2)
----O----------|
--------3------| .......I'm losing ground, I fall from grace..just listen..
-----2---------|
-0-------------|
---------------|
---------------|

sometimes
        D                    Dsus2                 G
You gotta set free what you love just to bring it back
               D
Oh, would you ever lose me
           Dsus2           G
Would you ever let go for that
Em7(022030)      Cadd9(032030)
And if the love is real,
                  G
you gotta let yourself go
                        D
Just to bring it back, sometimes
                  G
Just to bring it back,

Em7
MMmmm


              *D*
-2-2-0-0-0-3-2------2-2-0-0-0-3-3------|
-3-3-3-3-3-3-3-3----3-3-3-3-3-3-3-3----|
-2-2-2-2-2-2-2-2----2-2-2-2-2-2-2-2----|    (2X)
---------------------------------------|
---------------------------------------|
---------------------------------------|

(CONTINUE *D* THRU THESE WORDS..)

Hiding inside my asylum
I'm always hanging on by a thread
I can't expect you to respect me
Until I've learned to respect myself

-----2-------|
----------3--|     "..I've let you down, you've lost your own taste"
-------2-----|
--0----------|
-------------|
-------------|

-----0-------|
----------3--|     "..I'm losing ground, I miss your face "
-------2-----|
--0----------|
-------------|
-------------|

     Em7
Well, just listen
     Em7
Well, just listen
   G
        D                    Dsus2                 G
You gotta set free what you love just to bring it back
               D
Oh, would you ever lose me
           Dsus2           G
Would you ever let go for that
Em7(022030)      Cadd9(032030)
And if the love is real,
                  G
you gotta let yourself go
                        D
Just to bring it back, sometimes
                  G
Just to bring it back,
Oh, the love you're bringing back
(I DO *d* after this because i dont know the real riff)
        D                 D
I've let you down (I've let you down)
                     Dsus2
You've lost your own taste
      (020230)                  G
I'm losing ground, I fall from grace
      Em7
Well, just listen
    G
   G

        D                    Dsus2                 G
You gotta set free what you love just to bring it back
               D
Oh, would you ever lose me
           Dsus2           G
Would you ever let go for that
Em7(022030)      Cadd9(032030)
And if the love is real,
                  G
you gotta let yourself go
                        D
Just to bring it back, sometimes
                  G
Just to bring it back

..repeat chorus...

Michelle
            
Tabs too difficult? Try these video lessons and learn fast.


comments powered by Disqus
↑ Back to top | Tablatures and chords are parodies/interpretations of the original songs. You may use it for private study, scholarship, research or language learning purposes only