>
 >
Revolve

Revolve Bass Tabs

Nine Days - Revolve chords, tabs, tablatures, lyrics

Guitar lessons | Add/correct | Request | Top 50 tabs Artists:  A B C D E F G H I J K L M N O P Q R S T U V W X Y Z 0-9

Revolve Bass Tabs – Nine Days

CD, Sheet music, Poster

Do you like Revolve? Share with your friends now
Bass TabsTabsTabs v2
-------------------------------------------------------------------------------
-------------------------------------------------------------------------------


Tuning: Standard (E-A-D-G)

Intro:
G|---------------------------------------------------------------------------|
D|---------------------------------------------------------------------------|
A|---555555555---------------------------------------------------------------|  X2
E|-------------77777777-22222222-55555555------------------------------------|

G|---------------------------------------------------------------------------|
D|---------------------------------------------------------------------------|
A|---------------------------------------------------------------------------| X1
E|---33333333-55555555-77777777-55555555-33333333-55555555-------------------|


Verse:
G|---------------------------------------------------------------------------|
D|---------------------------------------------------------------------------|
A|---------------------------------------------------------------------------|
E|---3-3h5--5-5h7--7-7p5--5-5p3----------------------------------------------|


Pre-Chorus:
G|---------------------------------------------------------------------------|
D|---------------------------------------------------------------------------|
A|---------------------------------------------------------------------------|
E|---33333333-55555555-22222222-33333333-------------------------------------|

Chorus:
G|---------------------------------------------------------------------------|
D|---------------------------------------------------------------------------|
A|---555555555---------------------------------------------------------------|  X2
E|-------------77777777-22222222-55555555------------------------------------|

G|---------------------------------------------------------------------------|
D|---------------------------------------------------------------------------|
A|---------------------------------------------------------------------------| X1
E|---33333333-55555555-77777777-55555555-33333333-55555555-------------------|


Verse:
G|---------------------------------------------------------------------------|
D|---------------------------------------------------------------------------|
A|---------------------------------------------------------------------------|
E|---3-3h5--5-5h7--7-7p5--5-5p3----------------------------------------------|


Bridge:
G|---------------------------------------------------------------------------|
D|---------------------------------------------------------------------------|
A|---5-----------------------------------------------------------------------|
E|------5--7--5--------------------------------------------------------------|


Pre-Chorus:
G|---------------------------------------------------------------------------|
D|---------------------------------------------------------------------------|
A|---------------------------------------------------------------------------|
E|---33333333-55555555-22222222-3--------------------------------------------|


Chorus:
G|---------------------------------------------------------------------------|
D|---------------------------------------------------------------------------|
A|---555555555---------------------------------------------------------------|  X2
E|-------------77777777-22222222-55555555------------------------------------|

G|---------------------------------------------------------------------------|
D|---------------------------------------------------------------------------|
A|---------------------------------------------------------------------------| X1
E|---33333333-55555555-77777777-55555555-33333333-55555555-------------------|




| /  slide up
| \  slide down
| h  hammer-on
| p  pull-off
| ~  vibrato
| +  harmonic
| x  Mute note
===============================================================================





Comments


Popular Nine Days tabs & chords
Emily Bass Tabs
Wannabe Bass Tabs
17 And 33 Chords
Absolutely 2 Chords
Things We Said 1 Chords
Absolutely (Solo) Tabs
Bitter Tabs
Crazy Tabs
Wanna Be Tabs
Absolutley Story Of A Girl Ukulele


Song lyrics



↑ Back to top | Tablatures and chords are parodies/interpretations of the original songs. You may use it for private study, scholarship, research or language learning purposes only
© 2014 AZChords.com Contact us | Privacy policy | DMCA | Add/correct tabs | Request tabs | Top 50 tabs