>
 >
Ninedays Absolutel

Ninedays Absolutel Guitar Tabs

Nine Days - Ninedays Absolutel chords, tabs, tablatures, lyrics

Guitar lessons | Add/correct | Request | Top 50 tabs Artists:  A B C D E F G H I J K L M N O P Q R S T U V W X Y Z 0-9

Ninedays Absolutel Guitar Tabs – Nine Days

CD, Sheet music, Poster

Do you like Ninedays Absolutel? Share with your friends now
Tabs
|Nine Days|
|Absolutely (story of a girl)|
+----+
Intro / Chorus
	e----------------------------------------------------------
	B---3-3-3-3-3-3-3--------5-5-5-5---------------------------
	G---0-0-0-4-4-4-4--7-7-7-6-6-6-6---4-4-5-5-6-6-6-6-6-6-6-6-
	D---2-2-2-5-5-5-5--7-7-7-7-7-7-7---4-4-5-5-7-7-7-7-7-7-7-7-
	A---3-3-3-5-5-5-5--5-5-5-7-7-7-7---2-2-3-3-7-7-7-7-7-7-7-7-
	E---------3-3-3-3--------5-5-5-5-----------5-5-5-5-5-5-5-5-
This is the story of a girl..              but while she look so sad in..
                          
                              Verse
	e-------------------||-----------------------------------------
	B-----------x-------||O----------------------------------------
	G-------x-7-x-5-4---||---44444-xxxx-5-55-44444----------------------
	D-5-5-5-x-7-x-5-5---||---44444-xxxx-5-55-55555-xxxx-7-77-----------------
	A-5-5-5-x-5-x-3-5---||O--22222-xxxx-3-33-55555-xxxx-5-55-----------------
	E-3-3-3-x-------3---||-------------------33333----------------------
When she  smiles	1st and 2nd times	

			    Gtr. 2
			     e-----------------------------10-10---------10-8--
			     B-88-8-8-8-8-8-8-888-8-8-8-8-8--8--8---or--8--8-8-
			     G-------------------------------------------------
			     D-------------------------------------------------
			     A-------------------------------------------------
 			     E-------------------------------------------------
			     How many lovers would stay...

Prechrus
Gtr1
e-----------------------------------------------------------
B-----------------------------------------------------------
G-----------------------------------------------------------
D-----------------------------------------------------------
A-2-2-2-2-4-4-4-4-5-5-5-5-7-7-7-7-2-2-2-2-4-4-4-4-7-7-7-7-7-
E-0-0-0-0-2-2-2-2-3-3-3-3-5-5-5-5-0-0-0-0-2-2-2-2-5-5-5-5-5-
Your clothes never wear as well the next day...

Gtr 2
e-10-----7-10-8-7----10------7-10-10/12-10----10-----7-10-8-7---10-
B--8--10----------8--8--8-10---------------12-8---10----------8----
G------------------------------------------------------------------
D------------------------------------------------------------------
A------------------------------------------------------------------
E------------------------------------------------------------------

Solo coming soon
Play Verse chords over solo
End in
e---3---------
B---3---------
G---4---------
D---5---------
A---5---------
E---3---------

This is the story of a girl
Who Cried a River and drowned the whole world
And while she looks so sad in photographs
I absolutely love her
when she smiles

how many days in a year
she woke up with hope but she only found tears
and I can be so insencere
makin the promises never for real
as long as she stands there waiting
wearin the holes in the soles of her shoes
how many days disappear
you look in the mirror so how do you choose
Your clothes never wear as well the next day
and you hair never falls in quite the same way
you never seem to run outta things to say

This is the Story of a girl
cried a river and drowned the whole world
and though she looks so sad in photographs
I absolutely love her
when she smiles

how many lovers would stay
just to put up with this shit day after day
how did we wind up this way
watchin the mouths for the words I would say
as long as I stand here waiting
wearing the clothes of the souls I would choose
How do we get there today?
Walking too far for the price of the shoes
your clothes never wear as well the next day
and your hair never falls in quite the same way
you never seem to run outta things to say

This is the story of a girl
Who Cried a River and drowned the whole world
And while she looks so sad in photographs
I absolutely love her
when she smiles

And your clothes never wear as well the next day
And your hair never falls in quite the same way
you never seem to run outta things to say

Chorus

This is the story of a girl
pretty face she hid from the world
and while she looked so sad and lonely there
I absolutly love her
This is the story of a girl
Who cried a river and drowned the whole world
and while she looks so sad in photographs
I absolutly love her
when she smiles
when she smiles





Comments


Popular Nine Days tabs & chords
Absolutely Chords
Absolutely (Story Of A Girl) Chords
If I Am 5 Chords
Moment Chords
Sometimes Chords
257 Weeks Tabs
Absolutely (Solo) Tabs
Absolutely 6 Tabs
Good Friend Ukulele
Things We Said Ukulele


Song lyrics



↑ Back to top | Tablatures and chords are parodies/interpretations of the original songs. You may use it for private study, scholarship, research or language learning purposes only
© 2014 AZChords.com Contact us | Privacy policy | DMCA | Add/correct tabs | Request tabs | Top 50 tabs