» » »

Nine Days, Favorite Song Tabs (ver.1)

Artists:  A B C D E F G H I J K L M N O P Q R S T U V W X Y Z # 

Favorite Song Tabs (ver.1)

Nine Days Tabs
Rating:
0/5 (0 votes)
Favorite Song lessons Tabs too difficult? Try these video lessons and learn fast
                Nine Days
"Favorite Song"


I cant assure this is 100% correct 'cause I still have my doubts on some
parts, but it sounds pretty close to me so I guess not all of it is wrong.

Normal Tuning

Intro and Verse

D#5 C5 A#5 G#5 (x5)

Pre-Chorus

C5 A#5 F#5 A#5 D5 D#5 (x1)

Chorus

D#5 C5 A#5 G#5 (x2)

Brigde

e|-------------------------------|
B|-------------------------------|
G|--8-8-8-8/10-10-10--8-8-7-8----|
D|--8-8-8-8/10-10-10--8-8-8-8----|
A|--6-6-6-6/8--8--8---6-6-6-6----|
E|-------------------------------|(x4)

Repeat Verse (x2)
Repeat Pre-Chorus (x1)
Repeat Chorus (x2)

Solo (This is what I found to be the most understandable part of the solo. You can add some
fills or just improv. Suit yourself.)

e|----------------------------------------------|
B|--------------------------------8-8--6-6------|
G|--5-5--7-8--5-5-7-8-8--5-5-7-8-----------8-7--|
D|----------------------------------------------|
A|----------------------------------------------|
E|----------------------------------------------|x2

e|----------------------------------------------|
B|-----------------------8-8--6-6--8-8--6-6-----|
G|--5-5--7-8--5-5-7-8-8----------------------7--|
D|----------------------------------------------|
A|----------------------------------------------|
E|----------------------------------------------|

Repeat Chorus (x2)
Repeat Bridge till the end

---------

Well thats it! Pretty easy song.
Any comments or corrections are gladly appreciated.
            
Submit corrections

comments powered by Disqus
↑ Back to top | Nine Days Tabs for Favorite Song. Lyrics for acoustic guitar and electric guitar. Tablatures and chords are parodies/interpretations of the original songs. You may use it for private study, scholarship, research or language learning purposes only