» » »

Emily Bass tabs (ver.1)

Artists:  A B C D E F G H I J K L M N O P Q R S T U V W X Y Z # 

Emily Bass tabs (ver.1)

Nine Days
Rating:
0/5 (0 votes)

Hard to play? Try these video lessons and learn fast.
                Ive got most of it. I dont have the breakdown, ending part,  but its just notes
that are used in the song...so just be creative :) This is my first tab here too!

Intro
|------------------------------------------------|
|------------------------------------------------|
|--5 5-5---1-1-1-------3-3-----------------------|
|----------------1 1-1---------------------------|

Verse
|------------------------------------------------|
|------/7----------------------------------------|
|-55-5--------/8---------/3---3-5----------------|
|---------6-6-------1-1--------------------------|

Chorus
|------------------------------------------------|
|-------------------------------------------------
|------------------------------------------------
|--6<---1<---6<----------------------------------}

ps...the chorus could use work too, but its close.
            
Hard to play? Try these video lessons and learn fast. | Correct




comments powered by Disqus
↑ Back to top | Tablatures and chords are parodies/interpretations of the original songs. You may use it for private study, scholarship, research or language learning purposes only