>
 >
Back To Me

Back To Me Guitar Tabs

Nine Days - Back To Me chords, tabs, tablatures, lyrics

Guitar lessons | Add/correct | Request | Top 50 tabs Artists:  A B C D E F G H I J K L M N O P Q R S T U V W X Y Z 0-9

Back To Me Guitar Tabs – Nine Days

CD, Sheet music, Poster

Do you like Back To Me? Share with your friends now
ChordsTabsUkulele
Standard Tuning


Intro: (x2)
|--3-3----3-3-3-3-3----2-2----3-3-3-3-3----3-3----3-3-3-3-3----3-3----3-3-3-3-3-------|
|--3-3----3-3-3-3-3----3-3----3-3-3-3-3----3-3----3-3-3-3-3----3-3----3-3-3-3-3-------|
|--0-0----2-2-2-2-2----2-2----0-0-0-0-0----0-0----2-2-2-2-2----0-0----0-0-0-0-0-------|  
|--0-0----2-2-2-2-2----0-0----0-0-0-0-0----0-0----2-2-2-2-2----2-2----2-2-2-2-2-------|
|--2-2----0-0-0-0-0-----------2-2-2-2-2----2-2----0-0-0-0-0----3-3----3-3-3-3-3-------|
|--3-3-------------------------------------3-3----------------------------------------|




Pre-Verse:
Gtr 1. (x2)
|--3--3-3----3-3-3-3----3--3-3----3-3-3-3-------|
|--3--3-3----3-3-3-3----3--3-3----3-3-3-3-------|
|--0--0-0----2-2-2-2----0--0-0----0-0-0-0-------| 
|--0--0-0----2-2-2-2----0--0-0----0-0-0-0-------|
|--2--2-2----0-0-0-0----x--x-x----2-2-2-2-------|
|--3--3-3---------------2--2-2----3-3-3-3-------|



Gtr 2. (mandolin transcribed for guitar)
|--17--17--17-17-17--17-15-14-12----12--10-10----12--14-14-14--10-------|
|-----------------------------------------------------------------------|
|-----------------------------------------------------------------------|
|-----------------------------------------------------------------------|
|-----------------------------------------------------------------------|
|-----------------------------------------------------------------------|



|--17--17--17-17-17--17-15-14-12----12--10-10----12--14-14-14--10h12--10~------|
|------------------------------------------------------------------------------|
|------------------------------------------------------------------------------|
|------------------------------------------------------------------------------|
|------------------------------------------------------------------------------|
|------------------------------------------------------------------------------|




Verse: (x4)
|---------------------------------------------------------------|
|-------3---------------3------------3---------------3----------|
|----------0---------0-----0------------0---------0-----0-------| 
|---------------------------------------------------------------|
|---------------0-----------------------------------------------|
|--3----------------------------2------------3------------------|




Pre-Chorus: (x2)
|--2~----------3~----------3~----------3~-------|
|--3~----------3~----------3~----------3~-------|
|--2~----------2~----------0~----------2~-------| 
|--0~----------2~----------0~----------2~-------|
|--------------0~----------2~----------0~-------|
|--------------------------3~-------------------|




Chorus:
Gtr. 1 (x2)
|--3-3----3-3-3-3-3----2-2----3-3-3-3-3----3-3----3-3-3-3-3----3-3-3-------|
|--3-3----3-3-3-3-3----3-3----3-3-3-3-3----3-3----3-3-3-3-3----3-3-3-------|
|--0-0----2-2-2-2-2----2-2----0-0-0-0-0----0-0----2-2-2-2-2----0-0-2-------| 
|--0-0----2-2-2-2-2----0-0----0-0-0-0-0----0-0----2-2-2-2-2----2-x-2-------|
|--2-2----0-0-0-0-0-----------2-2-2-2-2----2-2----0-0-0-0-0----3-2-0-------|
|--3-3-------------------------------------3-3-----------------------------|



Gtr. 2 (x2)
|--9h10~---------------9h10~---------------9h10~---------------8-7-5~------|
|--------------------------------------------------------------------------|
|--------------------------------------------------------------------------| 
|--------------------------------------------------------------------------|
|--------------------------------------------------------------------------|
|--------------------------------------------------------------------------|




Pre-Verse:
Gtr 1. (x2)
|--3--3-3----3-3-3-3----3--3-3----3-3-3-3-------|
|--3--3-3----3-3-3-3----3--3-3----3-3-3-3-------|
|--0--0-0----2-2-2-2----0--0-0----0-0-0-0-------| 
|--0--0-0----2-2-2-2----0--0-0----0-0-0-0-------|
|--2--2-2----0-0-0-0----x--x-x----2-2-2-2-------|
|--3--3-3---------------2--2-2----3-3-3-3-------|



Gtr.2
|--17--17--17-17-17--17-15-14-12----12--10-10----12--14~-----------------------|
|------------------------------------------------------------------------------|
|------------------------------------------------------------------------------|
|------------------------------------------------------------------------------|
|------------------------------------------------------------------------------|
|------------------------------------------------------------------------------|



|--17--17--17-17-17--17-15-14-12----12--10-10----12--14-14/15-14--12-10~-------|
|------------------------------------------------------------------------------|
|------------------------------------------------------------------------------|
|------------------------------------------------------------------------------|
|------------------------------------------------------------------------------|
|------------------------------------------------------------------------------|




Verse: (x4)
|---------------------------------------------------------------|
|-------3---------------3------------3---------------3----------|
|----------0---------0-----0------------0---------0-----0-------| 
|---------------------------------------------------------------|
|---------------0-----------------------------------------------|
|--3----------------------------2------------3------------------|




Pre-Chorus: (x2)
|--2~----------3~----------3~----------3~-------|
|--3~----------3~----------3~----------3~-------|
|--2~----------2~----------0~----------2~-------| 
|--0~----------2~----------0~----------2~-------|
|--------------0~----------2~----------0~-------|
|--------------------------3~-------------------|




Chorus: 
Gtr. 1 (x2)
|--3-3----3-3-3-3-3----2-2----3-3-3-3-3----3-3----3-3-3-3-3----3-3-3-------|
|--3-3----3-3-3-3-3----3-3----3-3-3-3-3----3-3----3-3-3-3-3----3-3-3-------|
|--0-0----2-2-2-2-2----2-2----0-0-0-0-0----0-0----2-2-2-2-2----0-0-2-------| 
|--0-0----2-2-2-2-2----0-0----0-0-0-0-0----0-0----2-2-2-2-2----2-x-2-------|
|--2-2----0-0-0-0-0-----------2-2-2-2-2----2-2----0-0-0-0-0----3-2-0-------|
|--3-3-------------------------------------3-3-----------------------------|



Gtr. 2 (x2)
|--9h10~---------------9h10~---------------9h10~---------------8-7-5~------|
|--------------------------------------------------------------------------|
|--------------------------------------------------------------------------| 
|--------------------------------------------------------------------------|
|--------------------------------------------------------------------------|
|--------------------------------------------------------------------------|





Bridge:
Gtr. 1 (x4)
|--3-3-3-3----2-2-2-2----3-3-3-3----3-3-3-3-------|
|--3-3-3-3----3-3-3-3----3-3-3-3----3-3-3-3-------|
|--0-0-0-0----2-2-2-2----0-0-0-0----0-0-0-0-------| 
|--2-2-2-2----0-0-0-0----x-x-x-x----0-0-0-0-------|
|--2-2-2-2---------------2-2-2-2----x-x-2-2-------|
|--0-0-0-0--------------------------2-2-3-3-------|



Gtr. 2 (x4)
|-------------------------------------------------|
|-------------------------------------------------|
|-------------------------------------------------| 
|-------------------------------------------------|
|--------5h7--5-----------------------------------|
|--0-0-----------5----7-7-7-7---2-2-2/3-3-3-------|



|--3-3-3-3-----------------3-3-3-3-----------------------------|
|--3-3-3-3-----------------3-3-3-3-----------------------------|
|--0-0-0-0----5h7p5h7p7----0-0-0-0----5h7p5h7p5--5h7p5h7-------|
|--0-0-0-0----5h7p5h7p7----0-0-0-0----5h7p5h7p5--5h7p5h7-------|
|--2-2-2-2----5h7p5h7p7----2-2-2-2----5h7p5h7p5--5h7p5h7-------|
|--3-3-3-3-----------------3-3-3-3-----------------------------|




Chorus: 
Gtr.1 (x4)
|--3-3----3-3-3-3-3----2-2----3-3-3-3-3----3-3----3-3-3-3-3----3-3-3-------|
|--3-3----3-3-3-3-3----3-3----3-3-3-3-3----3-3----3-3-3-3-3----3-3-3-------|
|--0-0----2-2-2-2-2----2-2----0-0-0-0-0----0-0----2-2-2-2-2----0-0-2-------| 
|--0-0----2-2-2-2-2----0-0----0-0-0-0-0----0-0----2-2-2-2-2----2-x-2-------|
|--2-2----0-0-0-0-0-----------2-2-2-2-2----2-2----0-0-0-0-0----3-2-0-------|
|--3-3-------------------------------------3-3-----------------------------|



Gtr. 2 (x4)
|--9h10~---------------9h10~---------------9h10~---------------8-7-5~------|
|--------------------------------------------------------------------------|
|--------------------------------------------------------------------------| 
|--------------------------------------------------------------------------|
|--------------------------------------------------------------------------|
|--------------------------------------------------------------------------|




Outro:
Gtr 1. (x4)
|--3--3-3----3-3-3-3----3--3-3----3-3-3-3-------|
|--3--3-3----3-3-3-3----3--3-3----3-3-3-3-------|
|--0--0-0----2-2-2-2----0--0-0----0-0-0-0-------| 
|--0--0-0----2-2-2-2----0--0-0----0-0-0-0-------|
|--2--2-2----0-0-0-0----x--x-x----2-2-2-2-------|
|--3--3-3---------------2--2-2----3-3-3-3-------|



Gtr.2 (x2)
|--17--17--17-17-17--17-15-14-12----12--10-10----12--14~-----------------------|
|------------------------------------------------------------------------------|
|------------------------------------------------------------------------------|
|------------------------------------------------------------------------------|
|------------------------------------------------------------------------------|
|------------------------------------------------------------------------------|

                                                                                  

|--17--17--17-17-17--17-15-14-12----12--10-10----12--14-14/15-14--12-10~-------|
|------------------------------------------------------------------------------|
|------------------------------------------------------------------------------|
|------------------------------------------------------------------------------|
|------------------------------------------------------------------------------|
|------------------------------------------------------------------------------|





Comments


Popular Nine Days tabs & chords
Absolutely Chords
Bitter Chords
If I Am 1 Chords
Wanna Be Chords
Absolutely Story Of A Girl 2 Tabs
Favorite Song Tabs
If I Am 1 Tabs
Absolutely Ukulele
Absolutely Story Of A Girl Ukulele
Sometimes Ukulele


Song lyrics



↑ Back to top | Tablatures and chords are parodies/interpretations of the original songs. You may use it for private study, scholarship, research or language learning purposes only
© 2014 AZChords.com Contact us | Privacy policy | DMCA | Add/correct tabs | Request tabs | Top 50 tabs