>
 >
My Baby Just Cares For Me

My Baby Just Cares For Me Guitar Tabs

Nina Simone - My Baby Just Cares For Me chords, tabs, tablatures, lyrics

Guitar lessons | Add/correct | Request | Top 50 tabs Artists:  A B C D E F G H I J K L M N O P Q R S T U V W X Y Z 0-9

My Baby Just Cares For Me Guitar Tabs – Nina Simone

CD, Sheet music, Poster

Do you like My Baby Just Cares For Me? Share with your friends now
Bass TabsBass Tabs v2ChordsChords v2TabsUkulele

Play with swing baby!


                                
Intro / Main Verse Riff

    D               G       A
E ----2---2---2---3---3---3---0---0--:|
B ----3---3---3---3---3---3---2---2--:|
G ----2---2---2---0---0---0---2---2--:|    Repeat x4  (2 for intro, 2 for verse)
D --0--------------------------------:|
A ------4---2---0---------------0----:|
E ------------------3---2---0--------:|

    D               G                 Em7             A      
E ----2---2---2---3---3---3---3---3-|---3---3---3---3---0---0---0---0--|
B ----3---3---3---3---3---3---3---3-|---3---3---3---3---2---2---2---2--|
G ----2---2---2---0---0---0---0---0-|---0---0---0---0---2---2---2---2--|
D --0-------------------------------|---------2-----------2------------|
A ------4---2---0-------------------|-----2-------2---0-------0--------|
E ------------------3---2---0---2---|-0---------------------------0----|

    F#m                               Bm
E ----2---2---2---2---2---2---2---2-|---2---2---2---2---2---2---2---2--|
B ----2---2---2---2---2---2---2---2-|---3---3---3---3---3---3---3---3--| 
G ----2---2---2---2---2---2---2---2-|---4---4---4---4---4---4---4---4--|
D ----------4---3---4---------------|-----4---3---4-------4---3--------| 
A ------4---------------4-------4---|-2---------------2----------------|
E --2-----------------------2-------|-----------------------------2----|

    E                               Asus2
E ----0---0---0---0---0---0---0---0-|------7\--------|
B ----0---0---0---0---0---0---0---0-|------5\--------|
G ----1---1---1---1---1---1---1---1-|------0\--------| Back to main riff x2
D ----------2---1---2-----------2---|----7--\--------|
A ------2---------------2-----------|-0--------------|
E --0------------------------0------|----------------|


    D               G                 G                     
E ----2---2---2---3---3---3---3---3-|---3---3---3---3---3-----3---3-----3--|
B ----3---3---3---3---3---3---3---3-|---3---3---3---3---3-----3---3-----3--|
G ----2---2---2---0---0---0---0---0-|---0---0---0-0-----0-----0---0-----0--|
D --0-------------------------------|---------0-------0---------0----------|
A ------4---2---0-------------------|-----2---------------0h2-------0h2----|
E ------------------3---2---0---2---|-3------------------------------------|


    G               C#                D       D/C     Bm
E ----3---3---3---3---4---4-----4---|---2---2---2---2---2---2---2---2--|
B ----3---3---3---3---6---6-----6---|---3---3---3---3---3---3---3---3--|
G ----0---0---0---0---6---6---6-----|---2---2---2---2---4---4-4-----4--|
D ----------0-----------6---------6-|-0---0---------------4-------4----|
A ------2-------2---4---------------|---------3---3---2----------------|
E --3-------------------------------|----------------------------------|


    E               A        A/G      D               Bm
E ----0---0---0---0---0---0---0---0-|---2---3---2---2---2---2---2---2--|
B ----0---0---0---0---2---2---2---2-|---3---3---3---3---3---3---3---3--|
G ----1---1---1---1---2---2---2---2-|---2---2---2---2---4---4-4-----4--|
D ----------2-----------------------|---------------------4-------4----|
A ------2-------2---0---0-----------|---------0---1---2----------------|
E --0-----------------------3----3--|-2---2----------------------------|

    E               A                           D
E ----0---0---0---0---0---0----| Repeat      E -----------------------12--|
B ----0---0---0---0---2---2----| from        B -----------------------12--|
G ----1---1---1---1---2---2----| Beginning   G -7p6-4---------------7-11--|
D ----------2-----------2------|             D -------7-5p4-----4h7-------|
A ------2-------2---0-------0--|    Finale:  A -------------7-5-----------|
E --0--------------------------|             E ---------------------------|

v





Comments


Popular Nina Simone tabs & chords
Aint Got No I Got Life Remix 1 Chords
Black Is The Color Of My True Loves Hair Chords
Feeling Good Chords
Feeling Good 1 Chords
To Love Somebody Chords
Trouble In Mind Chords
Sinnerman 1 Tabs
Bye Bye Blackbird Ukulele
I Love Your Lovin Ways Ukulele
Sunday In Savannah Ukulele


Song lyrics



↑ Back to top | Tablatures and chords are parodies/interpretations of the original songs. You may use it for private study, scholarship, research or language learning purposes only
© 2014 AZChords.com Contact us | Privacy policy | DMCA | Add/correct tabs | Request tabs | Top 50 tabs