>
 >
Sacrifice Unto Sebek

Sacrifice Unto Sebek Guitar Tabs

Nile - Sacrifice Unto Sebek chords, tabs, tablatures, lyrics

Guitar lessons | Add/correct | Request | Top 50 tabs Artists:  A B C D E F G H I J K L M N O P Q R S T U V W X Y Z 0-9

Sacrifice Unto Sebek Guitar Tabs – Nile

CD, Sheet music, Poster

Do you like Sacrifice Unto Sebek? Share with your friends now
TabsTabs v2Tabs v3
Band/Artist - Nile
Song/Title - Sacrifice Unto Sebek
Album - Annihilation Of The Wicked - 2005 - Track 3
Version 1.0 - 24-06-06 - Original

Tuning - Drop A

Guitar I & II - A-E-A-D-F#-B - Low To High

Introduction;



B||--------------------------------||
F#|--------------------------------||
D||--------------------------------||
A||--5-3-0-1-3-1-1-0---0-1-0~------||    Guitar I & II
E||--5-3-0-1-3-1-1-0---0-1-0~------||
A||--5-3-0-1-3-1-1-0---0-1-0~------||
PM.  . . . . . . . .

B||------------------------------------------||
F#|------------------------------13----------||
D||------------------------------12----------||
A||--5-3-0-1-3-1-1-0--0-1-3-1-0--10--0-1-0~--|| Guitar I & II
E||--5-3-0-1-3-1-1-0--0-1-3-1-0--10--0-1-0~--||
A||--5-3-0-1-3-1-1-0--0-1-3-1-0--10--0-1-0~--||
PM.  . . . . . . . .          .

B||---------------------------||
F#|---------------------------||
D||---------------------------||
A||--5-3-0-1-3-1-1-0--0-1-0~--|| Guitar I
E||--5-3-0-1-3-1-1-0--0-1-0~--||
A||--5-3-0-1-3-1-1-0--0-1-0~--||
PM.  . . . . . . . .

B||------------------------------||
F#|------------------------------||
D||-------------------13-14-13~--||
A||--5-3-0-1-3-1-1-0--14-15-14~--|| Guitar II
E||--5-3-0-1-3-1-1-0--12-13-12~--||
A||--5-3-0-1-3-1-1-0--12-13-12~--||
PM.  . . . . . . . .

B||---------------------------------------||
F#|---------------------------------------||
D||---------------------------------------||
A||--5-3-0-1-3-1-1-0--0-1-3-1-1-0-0-1-0~--|| Guitar I
E||--5-3-0-1-3-1-1-0--0-1-3-1-1-0-0-1-0~--||
A||--5-3-0-1-3-1-1-0--0-1-3-1-1-0-0-1-0~--||
PM   . . . . . . . .

B||------------------------------------------------||
F#|------------------------------------------------||
D||-------------------13-14-16-14-13-11-13-14-13~--||
A||--5-3-0-1-3-1-1-0--14-15-17-15-14-12-14-15-14~--|| Guitar II
E||--5-3-0-1-3-1-1-0--12-13-15-13-12-10-12-13-12~--||
A||--5-3-0-1-3-1-1-0--12-13-15-13-12-10-12-13-12~--||
PM.  . . . . . . . .


Pre-Verse;

B||--------------------------------------------||
F#|--------------------------------------------||
D||--------------------------------------------||
A||--------------------------------------------|| Guitar I
E||--5h6-------------------------5h6-----------||
A||------0-6h5-0-3h5-2h3-0-0h1p0-----00-0h1p0--||
PM.      . ... . ... ... .           ..

Verse; - ALl Single Picked -

B||----------------------------------------------------------------||
F#|----------------------------------------------------------------|| Guitar
D||----------------------------------------------------------------||   I
A||----------------------------------------------------------------||   &
E||--3h5h6--------------------------3h5h6--------------------------||   II
A||--------0-6h5-0-3h5-2h3-0-0h1p0--------0-6h5-0-3h5-2h3-0-0h1p0--||
PM.        . ... . ... ... .              . ... . ... ... .

Continued;

B||----------------------------------------------------------||
F#|----------------------------------------------------------||
D||----------------------------------------------------------|| Guitar I & 
A||-------5h4p0----------------------5h4p0-------------------|| II
E||--3h5h6-----3h5h6-----------3h5h6------3h5h6--------------||
A||--------------------5-3-0-0--------------------5-3-0-0----||
PM.                    . . . .                    . . . .

Chorus;


B||-----------------------------------------------||
F#|-----------------------------------------------||
D||-----------------------9--10-----13-14-16-18---||
A||-0-0-1-0---------------10-11--0--14-15-17-19---|| Guitar I & II
E||-0-0-1-0--88-77-66-5----8--9--0--12-13-15-17---||
A||-0-0-1-0----------------8--9--0--12-13-15-17---||
PM.                              .   

B||-----------------------------------------------||
F#|-----------------------------------------------||
D||-----------------------9--10-----13-14-16-18---||
A||-0-0-1-0---------------10-11--0--14-15-17-19---|| Guitar I & II
E||-0-0-1-0--88-77-66-5----8--9--0--12-13-15-17---||
A||-0-0-1-0----------------8--9--0--12-13-15-17---||
PM.                              .


Pre Verse;

B||-----------------------------------------------------------------------||
F#|--10h11-----------------------------10h11------------------------------||
D||-------12h10-----------------------------12h10-------------------------||
A||------------0-12p10-0-15h12-0------------------0-12p10-0-15h12-0-------||
E||-----------------------------14p12------------------------------14p12--||
A||-----------------------------------------------------------------------||
PM        ...........................       ............................


Breakdown;

B||------------------------------------------------||
F#|----------10h13-13-13h10-10---------------------||
D||----------------------------0-12-10-9-10*^^-----||
A||--0-0-0-0---------------------------------------|| Guitar I & II
E||--0-0-0-0---------------------------------------||
A||--0-0-0-0---------------------------------------||

PM.  . . . . 

B||------------------------------------------------||
F#|----------10h13-13-13h10-10---------------------||
D||------------------------------------------------||
A||--0-0-0-0-----------------------10-10-10-10-----|| Guitar I & II
E||--0-0-0-0------------------------8--8--8--8-----||
A||--0-0-0-0---------------------------------------||

PM.  . . . . 



B||--------------------------------------------||
F#|--------------------------------------------||
D||--------------------------------------------||
A||--------------------------------------------|| Guitar I
E||--5h6-------------------------5h6-----------||
A||------0-6h5-0-3h5-2h3-0-0h1p0-----00-0h1p0--||
PM.      . ... . ... ... 


Solo; Cant Figure Out... Will Post When done

Guitar I Ends On;

B||--12b~~~~~r~~~-----||
F#|-------------------||
D||-------------------||
A||-------------------||
E||-------------------||
A||-------------------||

Outro;

B||--------------------------------||
F#|--------------------------------||
D||--------------------------------||
A||--5-3-0-1-3-1-1-0---0-1-0~------||    Guitar I & II
E||--5-3-0-1-3-1-1-0---0-1-0~------||
A||--5-3-0-1-3-1-1-0---0-1-0~------||
PM.  . . . . . . . .

B||------------------------------------------||
F#|------------------------------13----------||
D||------------------------------12----------||
A||--5-3-0-1-3-1-1-0--0-1-3-1-0--10--0-1-0~--|| Guitar I & II
E||--5-3-0-1-3-1-1-0--0-1-3-1-0--10--0-1-0~--||
A||--5-3-0-1-3-1-1-0--0-1-3-1-0--10--0-1-0~--||
PM.  . . . . . . . .          .

B||---------------------------||
F#|---------------------------||
D||---------------------------||
A||--5-3-0-1-3-1-1-0--0-1-0~--|| Guitar I
E||--5-3-0-1-3-1-1-0--0-1-0~--||
A||--5-3-0-1-3-1-1-0--0-1-0~--||
PM.  . . . . . . . .

B||------------------------------||
F#|------------------------------||
D||-------------------13-14-13~--||
A||--5-3-0-1-3-1-1-0--14-15-14~--|| Guitar II
E||--5-3-0-1-3-1-1-0--12-13-12~--||
A||--5-3-0-1-3-1-1-0--12-13-12~--||
PM.  . . . . . . . .

B||---------------------------------------||
F#|---------------------------------------||
D||---------------------------------------||
A||--5-3-0-1-3-1-1-0--0-1-3-1-1-0-0-1-0~--|| Guitar I
E||--5-3-0-1-3-1-1-0--0-1-3-1-1-0-0-1-0~--||
A||--5-3-0-1-3-1-1-0--0-1-3-1-1-0-0-1-0~--||
PM   . . . . . . . .

B||------------------------------------------------||
F#|------------------------------------------------||
D||-------------------13-14-16-14-13-11-13-14-13~--||
A||--5-3-0-1-3-1-1-0--14-15-17-15-14-12-14-15-14~--|| Guitar II
E||--5-3-0-1-3-1-1-0--12-13-15-13-12-10-12-13-12~--||
A||--5-3-0-1-3-1-1-0--12-13-15-13-12-10-12-13-12~--||
PM.  . . . . . . . .





Comments


Popular Nile tabs & chords
Stones Of Sorrow Bass Tabs
Iii Destruction Of The Temple Of The Enemies Of Ra Tabs
Iskander Dhul Karnon Intro Tabs
Kheftiu Asar Butchiu 1 Tabs
Papyrus Containing The Spell To Preserve Its Possessor Against Attacks From He Who Is In The Water Tabs
Sacrifice Unto Sebek 2 Tabs
Sarcophagus 1 Tabs
User Maat Re Tabs
User-maat-re Intro Tabs
Wind Of Horus 1 Tabs


Song lyrics



↑ Back to top | Tablatures and chords are parodies/interpretations of the original songs. You may use it for private study, scholarship, research or language learning purposes only
© 2014 AZChords.com Contact us | Privacy policy | DMCA | Add/correct tabs | Request tabs | Top 50 tabs