>
 >
Bless The Child

Bless The Child Bass Tabs

Nightwish - Bless The Child chords, tabs, tablatures, lyrics

Guitar lessons | Add/correct | Request | Top 50 tabs Artists:  A B C D E F G H I J K L M N O P Q R S T U V W X Y Z 0-9

Bless The Child Bass Tabs – Nightwish

CD, Sheet music, Poster

Do you like Bless The Child? Share with your friends now
Bass TabsTabsTabs v2



CHOIR INTRO:

F|------------------------------------------------------------|
C|------------------------------------------------------------|
G|------------------------------------------------------------|
D|-2-2~~~---2-2~~/14~----0-0-0~~---0-0-0~~---2-2-2~~--2-2~~---|



INTRO 2:

F|---------------------------------------------------------------|
C|---------------------------------------------------------------|
G|---------------------------------------------------------------|
D|-222-2-222-2-222-222-2-222-2-222-222--2--2-222---222--2--2-222-|
                                                 |
                                                 |
F|---------------------------------------------------------------|
C|---------------------------------------------------------------|
G|---------------------------------------------------------------|
D|-222-2-222-2-222-222-2-222-2-222-222--2--2-222---222--2-22-22--|


F|-----------------|8X
C|-----------------|
G|-----------------|
D|-000-0-000-0-000-|



VERSE:

F|----------------------------------------------------------------------------------------------|
C|----------------------------------------------------------------------------------------------|
G|-------------------------6\----------------------------------------------------------------2--|
D|-0---0-0---0-0-0--3--3-3-----320-0-000-0-000-320-0-000-0-000-3---3-3--3-2-3-5---5-5--5-2-5----|


F|---------------------------|
C|---------------------------|
G|-2-2--2-2-2--2-2-2-2-----5-|
D|---------------------3-----|



CHORUS:

F|----------------------------------------------------------------------------------------------|
C|------2---------------------------------------------------------------------------------------|
G|----2-------2-2--2-2--2-2-2------------3-5--5-5-5-------------------------------------2--2-2--|
D|-0------3-5-----------------3--3-3-3-5------------5--3-2-0--0-0--0-2-3-5--5-5--5-3-5----------|


F|--------------------|
C|--------------------|
G|-2-2-2-2--2222------|
D|---------------3--2-|



CHOIR:

F|-----------------|
C|-----------------|
G|-----------------|
D|-000-0-000-0-000-|8X



PLAY:

-VERSE



CHORUS 2:

F|----------------------------------------------------------------------------------------------|
C|------2---------------------------------------------------------------------------------------|
G|----2-------2-2--2-2--2-2-2------------3-5--5-5-5---------------------------------------------|
D|-0------3-5-----------------3--3-3-3-5------------5--3-2-0--0-0--0-2-3-5--5-5--5-3-5--5--5-5--|


F|-------------------2-4---2----------------------------------------------------------------------|
C|-----------------4-----4---2-0---------------------2--2-2--4-2----------------------------------|
G|-------2--2-2--2---------------2-------------2-3-5-------------5-------------3-5--5-5-5---------|
D|-5-5-5---------------------------3-2-0--0-0-----------------------3--3-3-3-5------------5--3-2-3|


F|-----------------------------|
C|-----------------------------|
G|------------0--0-0--0---0-2--|
D|-3-3--3-3-3-----------3------|



BRIDGE:

F|------------------------------------------|
C|------------------------------------------|
G|------------------------------------------|
D|-000-0-0-0-000-0-0-0-000-0-0-0-0000-0000--|



VERSE 3:

F|------------------------------------------------------------------------------------------------|
C|------------------------------------------------------------------------------------------------|
G|-------------3--3-1-3--5--5--5-3\----------------------3--3-1-3--5--5--5------------------------|
D|-0--0--0-0-0---------------------0--0-0-0-0-0--0-0-0-0-------------------8\3--3-3-2-3-5--5-5-5--|


F|-------------------------------------------------------------------------|
C|-------------------------------------------------------------------------|
G|-3--3----3--5--5--5----------0--0-0-0---3--3-3----3-5-5--5--5--5-2-3--2--|
D|-------2------------8\0(6x)--------------------2-------------------------|



BRIDGE 2:

F|--------------------------------------------------|
C|--------------------------------------------------|
G|--------------------------------------------------|
D|--555-5-5-5-5(5X)-5-5-5-5(5X)-5-5-5-5(5X)-5-5-5-55|



INTERLUDE:

F|-----------------------------------------------------------------------------------------------|
C|-----------------------------------------------------------------------------------------------|
G|-----------------------------------------------------------------------------------------------|
D|-555-5-5-5-5(5X)-5-5-5-5(5X)-5-5-5-5(5X)-5-5-5-5(5X)-5-5-5-5(5X)-5-5-5-5(5X)-5-5-5-5(5X)-5-5-5-|


F|-------------------------------------------------------------------------------------|
C|-------------------------------------------------------------------------------------|
G|-------------------------------------------------------------------------------------|
D|-55000-0-0-0-0(5X)-0-0-3-2-000-0-0-0-00555-5-5-3-2-000-0-0-0-0(5X)-0-0-3-2-000-0-0-0-|


F|-------------------------------------------------|
C|-------------------------------------------------|
G|---------------2-222-222-222-222-222-222-223-2-0-|
D|-00555-5-5-3-2-----------------------------------|



BASS FILL:

F|------------------------------------------------------------------------|
C|-2------2\-------------5------5---5-/7---7\2-----2/---------------------|
G|----2------2-----2\-3-----3-5---5------7------2-----0-----0-2(12X)------|
D|--------------2----------------------------------------0-----------3-2--|



LAST CHORUS

F|--------------------------------------------------2----------------------|
C|--------------------------------------------2-4-5---5-4-2-5-4-2-0--------|
G|--7(16X)------------5(8X)-----------------22-2-2-2-2-2-2-2-2-2-2-2-------|
D|--------7(16X)3(16X)-----5(8X)3(16X)5(16X)-------------------------3--2--|



FINAL RIFF:

F|-----------------------------------------------------------------|X2
C|-----------------------------------------------------------------|
G|------------------------------------------------------------1--1-|
D|-230-0-000-0-000-230-0-000-0-000-230-0-000-0-000-230-0-000-------|


F|---------------------------------------------------------------|x2
C|---------------------------------------------------------------|
G|---------------------------------------------------------------|
D|-452-2-222-2-222-452-2-222-2-222--452--2--2-222-245--2--2-222--|


F|-------------------|X8
C|-------------------|
G|-------------------|
D|-2300002300002300--|


F|-------------------|X8
C|-------------------|
G|-------------------|
D|-4522224522224500--|


Leg:

~:Let Ring
/:Slide Up
\:Slide Down





Comments


Popular Nightwish tabs & chords
Nemo 3 Bass Tabs
Sleeping Sun 2 Bass Tabs
The Siren Bass Tabs
For The Heart I Once Had Chords
Bless The Child Tabs
Ever Dream Live Tabs
Moondance Tabs
Sleeping Sun 2 Tabs
The Islander 1 Tabs
Ocean Soul Ukulele


Song lyrics



↑ Back to top | Tablatures and chords are parodies/interpretations of the original songs. You may use it for private study, scholarship, research or language learning purposes only
© 2014 AZChords.com Contact us | Privacy policy | DMCA | Add/correct tabs | Request tabs | Top 50 tabs