>
 >
Iron Man

Iron Man Guitar Tabs

Nico Vega - Iron Man chords, tabs, tablatures, lyrics

Guitar lessons | Add/correct | Request | Top 50 tabs Artists:  A B C D E F G H I J K L M N O P Q R S T U V W X Y Z 0-9

Iron Man Guitar Tabs – Nico Vega

CD, Sheet music, Poster

Do you like Iron Man? Share with your friends now
Tabs
-------------------------------------------------------------------------------
-------------------------------------------------------------------------------
Tuning: Standard

Very simple song. This tab is note for note, enjoy!

Intro/Verse
e|------------------------------------------------------------------------------------------|
B|------------------------------------------------------------------------------------------|
G|------4----------4----------2----------2h4p2--------4----------4----------2----------2----|
D|----5---5------5---5------1---1------1------------5---5------5---5------1---1------1---1--| 
A|--7----------5----------2----------2------------7----------5----------2----------2--------|
E|------------------------------------------------------------------------------------------|

e|--------------------------------------------------------------------------------------------|
B|--------------------------------------------------------------------------------------------|
G|------4----------4----------2----------2h4p2--------4----------4----------2----------2h4p2--|
D|----5---5------5---5------1---1------1------------5---5------5---5------1---1------1--------| 
A|--7----------5----------2----------2------------7----------5----------2----------2----------|
E|--------------------------------------------------------------------------------------------|

Chorus
e|--------------------------------------------------------------------------|
B|--------------------------------------------------------------------------|
G|------0--------0--------2--------2--------0--------0--------2--------2----|
D|----2---2----2---2----1---1----1---1----2---2----2---2----1---1----1---1--|
A|--3--------3--------2--------2--------3--------3--------2--------2--------|
E|--------------------------------------------------------------------------|

e|--------------------------------|
B|----------------------------0~--|
G|------0--------0--------2-------|
D|----4---4----4---4----1---1-----|
A|--3--------3--------2-----------|
E|--------------------------------|

Verse
e|------------------------------------------------------------------------------------------|
B|------------------------------------------------------------------------------------------|
G|------4----------4----------2----------2------------4----------4----------2----------2----|
D|----5---5------5---5------1---1------1---2--------5---5------5---5------1---1------1---1--| 
A|--7----------5----------2----------2------------7----------5----------2----------2--------|
E|------------------------------------------------------------------------------------------|

e|---------------------------------------------------------------------------------------------|
B|------0---------0-----------------------------------0----------0-----------------------------|
G|--------4---------4--------2----------2---------------4----------4-------2----------2h4p2p0--|
D|----5---------5----------1---1------1---2---------5----------5---------1---1------1----------| 
A|--7---------5----------2----------2-------------7----------5---------2----------2------------|
E|---------------------------------------------------------------------------------------------|

Chorus
e|---------------------------------------------------------------------------|
B|---------------------------------------------------------------------------|
G|------0--------0--------2--------2-0------0--------0--------2--------2-0---|
D|----2---2----2---2----1---1----1--------2---2----2---2----1---1----1-------|
A|--3--------3--------2--------2--------3--------3--------2--------2---------|
E|---------------------------------------------------------------------------|

e|--------------------------------|
B|----------------------------0~--|
G|------0--------0--------2-------|
D|----4---4----4---4----1---1-----|
A|--3--------3--------2-----------|
E|--------------------------------|

e|------------------------------------------------------------------------------------------|
B|------------------------------------------------------------------------------------------|
G|------4----------4----------2----------2h4p2--------4----------4----------2----------2----|
D|----5---5------5---5------1---1------1------------5---5------5---5------1---1------1---1--| 
A|--7----------5----------2----------2------------7----------5----------2----------2--------|
E|------------------------------------------------------------------------------------------|

e|------------------|
B|---------------0--|
G|------2-----------|
D|----1---1----1----|
A|--2--------2------|
E|------------------|

Breakdown
e|----------------------------------------------------------|
B|------0--------0---------6---------5----------------------|
G|--------4--------4-------------------------4--------4-----|
D|-----------------------7---7-----5---5--------0--------0--| x3
A|----5--------5-------5---------3----------5--------5------|
E|--3--------3----------------------------3--------3--------|

e|----------------------------------------------------------------------|
B|------0--------0---------6---------5--------4--------4--------4-------|
G|--------4--------4----------------------------------------------------|
D|-----------------------7---7-----5---5----1---1----1---1----1---1-----| 
A|----5--------5-------5---------3--------2--------2--------2--------2--|
E|--3--------3----------------------------------------------------------|

Verse
e|--------------------------------------------------------------------------------------------|
B|--------------------------------------------------------------------------------------------|
G|------4----------4----------2----------2h4p2--------4----------4----------2----------2h4p2--|
D|----5---5------5---5------1---1------1------------5---5------5---5------1---1------1--------| 
A|--7----------5----------2----------2------------7----------5----------2----------2----------|
E|--------------------------------------------------------------------------------------------|

Chorus
e|----------------------------------------------------------------------------|
B|------0---------------------------------------------------------------------|
G|---------------4--------2--------2--------0--------0--------2--------2-2p0--|
D|----2---2----2---2----1---1----1---1----2---2----2---2----1---1----1--------|
A|--3--------3--------2--------2--------3--------3--------2--------2----------|
E|----------------------------------------------------------------------------|

e|----------------------------------|
B|----------------------------0--0--|
G|------0--------0--------2---------|
D|----4---4----4---4----1---1---1---|
A|--3--------3--------2-------------|
E|----------------------------------|

Outro
e|------------------------------------------------------------------------------------------------|
B|------------------------------------------------------------------------------------------------|
G|------4----------4----------2----------2h4p2--------4----------4----------2----------2------2~--|
D|----5---5------5---5------1---1------1------------5---5------5---5------1---1------1---1----1~--| 
A|--7----------5----------2----------2------------7----------5----------2----------2----------2~--|
E|------------------------------------------------------------------------------------------------|

Great song by a not-too-popular band. Check them out, all around very good!
Please rate and leave any comments/feedback! Enjoy.





Comments


Popular Nico Vega tabs & chords
Beast Bass Tabs
Fury Oh Fury Bass Tabs
Fury Oh Fury Chords
Gravity Chords
Beast Tabs
Burn Burn Tabs
Gravity Tabs
Medicine Man Tabs
Fury Oh Fury Ukulele
Gravity Ukulele


Song lyrics



↑ Back to top | Tablatures and chords are parodies/interpretations of the original songs. You may use it for private study, scholarship, research or language learning purposes only
© 2014 AZChords.com Contact us | Privacy policy | DMCA | Add/correct tabs | Request tabs | Top 50 tabs