» » »

Nick Lowe, Only A Fool Tabs (ver.1)

Artists:  A B C D E F G H I J K L M N O P Q R S T U V W X Y Z # 

Only A Fool Tabs (ver.1)

Nick Lowe Tabs
Rating:
0/5 (0 votes)
Hard to play? Try these video lessons and learn fast.
                

     E                           B
E |----------------------------------------------------------------|
B |--4---2-------4---2---------------------------------------------|
G |----------4-----------4-----------------------------------------|
D |----------------------------------------------------------------|
A |----------------------------------------------------------------|
E |----------------------------------------------------------------|

Verse (E  B  C#m  G#m  A  B  E  B)
E                         B
Why do I keep fooling myself
C#m                             Gm#
When I know you love someobody else
A       B                   E      B
Only a fool breaks his own heart

Verse (E  B  C#m  G#m  A  B  E  B)

I pretend that I don't see
When you walk with him down the street
Only a fool breaks his own heart

Chorus (A  G#  E  A / A G#  G  A)

A               G#              E                 A
I have to admit it      Even though you hurt me so 
A              G#         G                     A
I can't forget it       If I'm a man I'd let you go

Verse (E  B  C#m  G#m  A  B  E  B)

It's no use trying to hang on   To a love already gone
Only a fool breaks his own heart

Solo

E |--7---9---7-----------------------------------------------------|
B |--------------10---9---7---7—7/9--9--9---7--5--4----------------|
G |---------------------------------------------------6--6---------|
D |----------------------------------------------------------------|
A |----------------------------------------------------------------|
E |----------------------------------------------------------------|

Chorus (A  G#  E  A / A G#  G  A)

Verse (E  B  C#m  G#m  A  B  E  B)

There's no sense in holding on
To an old love that's gone
Only a fool breaks his own heart x3
            

comments powered by Disqus
↑ Back to top | Nick Lowe Tabs for Only A Fool. Lyrics for acoustic guitar and electric guitar. Tablatures and chords are parodies/interpretations of the original songs. You may use it for private study, scholarship, research or language learning purposes only