>
 >
I Love The Sound Of Breaking Glass

I Love The Sound Of Breaking Glass Bass Tabs

Nick Lowe - I Love The Sound Of Breaking Glass chords, tabs, tablatures, lyrics

Guitar lessons | Add/correct | Request | Top 50 tabs Artists:  A B C D E F G H I J K L M N O P Q R S T U V W X Y Z 0-9

I Love The Sound Of Breaking Glass Bass Tabs – Nick Lowe

CD, Sheet music, Poster

Do you like I Love The Sound Of Breaking Glass? Share with your friends now
Bass Tabs
I Love the Sound of Breaking Glass
Nick Lowe
Bass Tab
Bassist: Andrew Bodnar

104BPM, 4/4, 4th and 10th bars of every Verse are 3/4
             4th and 9th bars of Instrumental are 3/4

Intro

|-----|
|-----|
|-----|
|-----|

Verse

|-----------|-----------|-----------|----------|
|-----------|-----------|-----------|----------|
|-----------|-----------|-----------|--------2-|
|-33--33----|-33--33----|-33--33----|-33--35---|

|-------------|-------------|-----------|-------------|
|-------------|-------------|-----------|-------------|
|-33--33----x-|-33--33--345-|-----------|-------------|
|-------------|-------------|-33--33----|-33--33----x-|

|-----------|-----------|-----------|-----------|
|-----------|-----------|-----------|-----------|
|-----------|---------2-|-33--33----|-33--33----|
|-33--33----|-33-3-35---|-----------|-----------|

Chorus

|-------16---17-16-14-|--------------|---------------|---------------|
|-----14---14---------|--------------|---------------|---------------|
|-0-------------------|--------------|---------------|---------------|
|---------------------|-33333-33--3--|-33333-33-3-3--|-33333-33-3-3--|

|--------------|
|--------------|
|--------------|
|-33333-33--3--|

Verse

|-----------|-----------|-----------|------------|
|-----------|-----------|-----------|------------|
|-----------|-----------|-----------|----------2-|
|-33--33----|-33--33----|-33--33----|-33--3-35---|

|-----------|----------7--|-----------|-----------|
|-----------|-------------|-----------|-----------|
|-33--33----|-33--33--5-\-|-----------|-----------|
|-----------|-------------|-33--33----|-33--33----|

|-----------|------------|-----------|-------------|
|-----------|------------|-----------|-------------|
|-----------|----------2-|-33--33----|-33--33--321-|
|-33--33----|-33--3-35---|-----------|-------------|

Chorus

|-------16---17-16-14-|--------------|-------16---17-16-14-|--------------|
|-----14---14---------|--------------|-----14---14---------|--------------|
|-0-------------------|--------------|-0-------------------|--------------|
|---------------------|-33333-33--3--|---------------------|-33333-33--3--|

|-12---9--------------|
|----9---7------------|
|---------5-5320-5----|
|---------------------|

Intrumental

|-----------|-----------|-----------|------------|
|-----------|-----------|-----------|------------|
|-----------|-----------|-----------|----------2-|
|-33--33----|-33--33----|-33--33----|-33--3-35---|

|-----------|---------------|-----------|-----------|
|-----------|---------------|-----------|-----------|
|-33--33----|-33--33-0303/5-|-----------|-----------|
|-----------|---------------|-33--33----|-33--33----|

|------------|-----------|----------5-5-4-|
|------------|-----------|----------------|
|----------2-|-33--33----|-33-x3-x3-------|
|-33-33-35---|-----------|----------------|

Chorus

|-------16---17-16-14-|----------------|-------16---17-16-14-|----------------|
|-----14---14---------|----------------|----14----14---------|----------------|
|-0-------------------|----------------|-0-------------------|----------------|
|---------------------|-33333-33-33-3--|---------------------|-33333-33-3-3-3-|

|------16---17-16-14-----|--------------|-12---9-----------|
|----14---14---------14\-|--------------|----9---7---------|
|-0----------------------|--------------|---------5-5320-5-|
|------------------------|-33333-33--3--|------------------|

Verse

|-----------|-------------|-----------|-------------|
|-----------|-------------|-----------|-------------|
|-----------|-------------|-----------|----------2--|
|-33--33----|-33--33----x-|-33--33----|-33--3-35----|

|-----------|--------------|-------------|---------------|
|-----------|--------------|-------------|-----55--------|
|-33--33----|-33--33-33325-|-------------|--------75-----|
|-----------|--------------|-33--33--7\--|-33-------7575-|

|-----------|------------|-------------|---------------|
|-----------|------------|-------------|---------------|
|-----------|----------2-|-33--33----x-|-33--33-3-3p2--|
|-33--33----|-33--3-x5---|-------------|---------------|

Chorus

|-------16---17-16-14-|----------------|-------16---17-16-14-|---------------|
|-----14---14---------|----------------|----14----14---------|---------------|
|-0-------------------|----------------|-0-------------------|---------------|
|---------------------|-33333-33-x-3/--|---------------------|-33333-33-3-3--|

|-------16---17-16-14-|----------------|------16---17-1716-14-----|--------------|
|----14----14---------|----------------|---14----14-----------14\-|--------------|
|-0-------------------|----------------|-0------------------------|--------------|
|---------------------|-33333-33-3-3/--|--------------------------|-33333-33--33-|

Coda
                                                                                   3x
||-------------------------|--------------|------------------------|---------------||
||o----7----9----10-----12-|--------------|----7----9----10-----12-|--------------o||
||o------------------------|--------------|------------------------|--------------o||
||--/5---/7---/8----/10----|-33333-33--3--|-/5---/7---/8----/10----|-33333-33--3---||





Comments


Popular Nick Lowe tabs & chords
Cruel To Be Kind Chords
House For Sale Chords
I Live On A Battlefield Chords
Marie Provost 1 Chords
Failed Christian Ukulele
House For Sale Ukulele
In The Middle Of It All Ukulele
Marie Provost Ukulele
Wish You Were Here Ukulele
Without Love Ukulele


Song lyrics



↑ Back to top | Tablatures and chords are parodies/interpretations of the original songs. You may use it for private study, scholarship, research or language learning purposes only
© 2014 AZChords.com Contact us | Privacy policy | DMCA | Add/correct tabs | Request tabs | Top 50 tabs