>
 >
Cruel To Be Kind 2

Cruel To Be Kind 2 Bass Tabs

Nick Lowe - Cruel To Be Kind 2 chords, tabs, tablatures, lyrics

Guitar lessons | Add/correct | Request | Top 50 tabs Artists:  A B C D E F G H I J K L M N O P Q R S T U V W X Y Z 0-9

Cruel To Be Kind 2 Bass Tabs – Nick Lowe

CD, Sheet music, Poster

Do you like Cruel To Be Kind 2? Share with your friends now
Bass TabsBass Tabs v2ChordsUkulele
-----------------------------------------------------------------------------
                        CRUEL TO BE KIND - Nick Lowe
-----------------------------------------------------------------------------


Tuning: E A D G

INTRO
|--------|--------|--------|--------|
|--------|--------|--------|--------|
|3-3-3333|2-2-2222|0-0-0000|------02|
|--------|--------|--------|3-3-33--|

|--------|--------|--------|--------|--------|
|--------|--------|--------|--------|--------|
|3-3-3333|2-2-2222|0-0-0000|--------|------02|
|--------|--------|--------|33333333|333333--|

VERSE 1
|--------|--------|--------|00--00--|--------|--------|--------|--------|
|--------|2-2-2-2-|3-3-3-3-|--5---5-|--------|2-2-2-2-|3-3-2-2-|0-0-0002|
|3-3-3-3-|--------|--------|--------|3-3-3-3-|--------|--------|--------|
|--------|--------|--------|--------|--------|--------|--------|--------|

|--------|--------|--------|0000000-|
|3-3-3-3-|2-2-2-2-|3-3-3-3-|--------|
|--------|--------|--------|--------|
|--------|--------|--------|--------|

CHORUS 1
|--------|----2---|--------|----2-2-|--------|----2-2-|
|3-335-52|-22-----|3-335-52|-22-----|3-335-52|-22-----|
|--------|------0-|--------|--------|--------|--------|
|--------|--------|--------|--------|--------|--------|

|--------|--------|--------|
|--------|--------|----53--|
|--------|--------|------02|
|33333333|33333333|3333----|

BRIDGE
|--------|--------|--------|--------|
|--------|--------|--------|--------|
|3-3-3333|2-2-2222|0-0-0000|------02|
|--------|--------|--------|3-3-33--|

VERSE 2
|--------|--------|--------|00--00--|--------|--------|--------|--------|
|--------|2-2-2-2-|3-3-3-3-|--5---5-|--------|2-2-2-2-|3-3-2-2-|0-0-0023|
|3-3-3-3-|--------|--------|--------|3-3-3-3-|--------|--------|--------|
|--------|--------|--------|--------|--------|--------|--------|--------|

|--------|--------|--------|0000000-|
|3-3-3-3-|2-2-2-2-|3-3-3-3-|--------|
|--------|--------|--------|--------|
|--------|--------|--------|--------|

CHORUS 2
|--------|----2---|--------|----2-0-|--------|----2-2-|
|3-335-52|-22-----|3-335-52|-22-----|3-335-52|-22-----|
|--------|------0-|--------|--------|--------|--------|
|--------|--------|--------|--------|--------|--------|

|--------|--------|--------|
|55555555|55555555|55555---|
|--------|--------|------02|
|--------|--------|-----3--|

SOLO
|--------|--------|--------|----20--|
|--------|--------|--------|------32|
|33333333|33333333|00000000|3040----|
|--------|--------|--------|--------|

|--------|----2-2-|--------|----2-2-|--------|----2---|
|3-335-52|-22-----|3-335-52|-22-----|3-335-52|-22-----|
|--------|--------|--------|--------|--------|------0-|
|--------|--------|--------|--------|--------|--------|

|--------|--------|--------|
|55555555|55555555|55555---|
|--------|--------|------02|
|--------|--------|-----3--|

VERSE 3
|--------|--------|--------|00--00--|--------|--------|--------|--------|
|--------|2-2-2-2-|3-3-3-3-|--5---5-|--------|2-2-2-2-|3-3-2-2-|0-0-0002|
|3-3-3-3-|--------|--------|--------|3-3-3-3-|--------|--------|--------|
|--------|--------|--------|--------|--------|--------|--------|--------|

|--------|--------|--------|0000----|
|3-3-3-3-|2-2-2-2-|3-3-3-3-|----5353|
|--------|--------|--------|--------|
|--------|--------|--------|--------|

OUTRO
|--------|--------|--------|----2---|--------|----2-2-|
|3-335-52|-22-----|3-335-52|-22-----|3-335-52|-22-----|
|--------|----0-0-|--------|------0-|--------|--------|
|--------|--------|--------|--------|--------|--------|

|--------|--------|--------|
|55555555|55555555|55555553|
|--------|--------|--------|
|--------|--------|--------|

|--------|----2-0-|--------|----2-2-|--------|----2---|
|3-335-52|-22-----|3-335-52|-22-----|3-335-52|-22-----|
|--------|--------|--------|--------|--------|------0-|
|--------|--------|--------|--------|--------|--------|

|--------|--------|--------|
|55555555|55555555|55555553|
|--------|--------|--------|
|--------|--------|--------|

|--------|----2-2-|--------|------2-|--------|----2---|
|3-335-52|-22-----|3-335-52|-22-----|3-335-52|-22-----|
|--------|--------|--------|----0---|--------|------0-|
|--------|--------|--------|--------|--------|--------|

|--------|--------|--------|
|55555555|55555555|55555353|
|--------|--------|--------|
|--------|--------|--------|

|--------|----2-2-|--------|----2-2-|
|3-335-52|-22-----|3-335-52|-22-----|
|--------|--------|--------|--------|
|--------|--------|--------|--------|

|--------|--------|--------|--------|





Comments


Popular Nick Lowe tabs & chords
Bygones Wont Go Chords
Ragin Eyes Chords
Sensitive Man Chords
Wish You Were Here Chords
I Live On A Battlefield Ukulele
My Heart Hurts Ukulele
Shes Got Soul Ukulele
Whats Shakin On The Hill Ukulele
Whats So Funny Ukulele
You Make Me Ukulele


Song lyrics



↑ Back to top | Tablatures and chords are parodies/interpretations of the original songs. You may use it for private study, scholarship, research or language learning purposes only
© 2014 AZChords.com Contact us | Privacy policy | DMCA | Add/correct tabs | Request tabs | Top 50 tabs