» » »

Nick Lowe, Cruel To Be Kind Bass tabs (ver.1)

Artists:  A B C D E F G H I J K L M N O P Q R S T U V W X Y Z # 

Cruel To Be Kind Bass tabs (ver.1)

Nick Lowe Tabs
 Rating:
4.2/5 (5 votes)
Cruel To Be Kind lessons Tabs too difficult? Try these video lessons and learn fast
                ----------------------------------------------------------------------------
----------------------------------------------------------------------------

This is my first attempt to ever tab something, and this song just makes me happy, 
so I figured why not try it?
Let me know if there are any problems.

Tuning: Standard

Intro: 
G|---------------------------------------|
D|---------------------------------------|
A|-3-3-333-------------------------------|
E|-----------0-0-000---1-1-111---3-3-333-|

G|-------------------------------------------|
D|-------------------------------------------|
A|-3-3-333-----------------------------------|
E|-----------0-0-000---1-1-111---3-3-3333333-|

Verse 1
G|-------------------------0-0-0-0---------------------------------|
D|---------2-2-2-2-3-3-3-3-----------------2-2-2-2-3-3-2-2-0-0-0-0-|
A|-3-3-3-3-------------------------3-3-3-3-------------------------|
E|-----------------------------------------------------------------|

G|-------------------------0000000-|
D|-3-3-3-3-2-2-2-2-3-3-3-3---------|
A|---------------------------------|
E|---------------------------------|

Chorus:
G|----------------|
D|----------------|
A|------------0-0-| x3
E|-1-1-3--303-----|

G|----------|
D|----------|
A|----------| x3
E|-33333333-|

Pre-Verse:
G|---------------------------------------|
D|---------------------------------------|
A|-3-3-333-------------------------------|
E|-----------0-0-000---1-1-111---3-3-333-|

Verse 2
G|-------------------------0-0-0-0---------------------------------|
D|---------2-2-2-2-3-3-3-3-----------------2-2-2-2-3-3-2-2-0-0-0-0-|
A|-3-3-3-3-------------------------3-3-3-3-------------------------|
E|-----------------------------------------------------------------|

G|-------------------------0000000-|
D|-3-3-3-3-2-2-2-2-3-3-3-3---------|
A|---------------------------------|
E|---------------------------------|

Chorus:
G|----------------|
D|----------------|
A|------------0-0-| x3
E|-1-1-3--303-----|

G|----------|
D|----------|
A|----------| x3
E|-33333333-|


G|---------------------------------|
D|---------------------------------|
A|-3-3-3-3-3-3-3-3-3-3-3-3-3-3-3-3-|
E|---------------------------------|

G|----------------|
D|----------------|
A|------------0-0-| x3
E|-1-1-3--303-----|

G|----------|
D|----------|
A|----------| x3
E|-33333333-|

Verse 2
G|-------------------------0-0-0-0---------------------------------|
D|---------2-2-2-2-3-3-3-3-----------------2-2-2-2-3-3-2-2-0-0-0-0-|
A|-3-3-3-3-------------------------3-3-3-3-------------------------|
E|-----------------------------------------------------------------|

G|-------------------------0000000-|
D|-3-3-3-3-2-2-2-2-3-3-3-3---------|
A|---------------------------------|
E|---------------------------------|

Chorus (REPEAT UNTIL END):
G|----------------|
D|----------------|
A|------------0-0-| x3
E|-1-1-3--303-----|

G|----------|
D|----------|
A|----------| x3
E|-33333333-|

============================================================================
            
Submit corrections

comments powered by Disqus
↑ Back to top | Nick Lowe Bass for Cruel To Be Kind. Lyrics for acoustic guitar and electric guitar. Tablatures and chords are parodies/interpretations of the original songs. You may use it for private study, scholarship, research or language learning purposes only