» » »

Nick Jonas And The Administration, Who I Am Tabs (ver.1)

Artists:  A B C D E F G H I J K L M N O P Q R S T U V W X Y Z # 

Who I Am Tabs (ver.1)

Nick Jonas And The Administration Tabs
 Rating:
4/5 (4 votes)
Who I Am lessons Tabs too difficult? Try these video lessons and learn fast
                Who I Am - Nick Jonas & The Administration

                   A/G#   A     A/G#    A
I want someone to love me
          E/D#   E    E/D#   E
For who I am
                  A/G#   A     A/G#    A
I want someone to need me
           E/D#   E    E/D#   E
Is that so bad?
                     A/G#   A     A/G#    A
I want a break of madness
                E/D#   E    E/D#   E
But it's all I have
                   A/G#   A    B
I want someone to love me
           E/D#   E    E/D#   E
For who I am

---------4----7---------4---7---4---7------------------|
-----5---------------5---------------------------------|
-------------------------------------------------------|
-------------------------------------------------------|
-------------------------------------------------------|
-------------------------------------------------------|


A
Nothing makes sense
                       E
Nothing makes sense anymore
A
Nothing is right
                              E
Nothing is right when you're gone
A
Loosing my breath
                        E
Loosing my right to be wrong
A
I'm frightened to death
                               E
I'm frightened that I wont be strong


                   A/G#   A     A/G#    A
I want someone to love me
          E/D#   E    E/D#   E
For who I am
                    A/G#   A     A/G#    A
I want someone to need me
            E/D#   E    E/D#   E
Is that so bad?
                    A/G#   A     A/G#    A
I want a break of madness
               E/D#   E    E/D#   E
But it's all I have
                   A/G#   A    B
I want someone to love me

For who I am

E/D#   E    E/D#   E

---------4----7---------4---7---4---7------------------|
-----5---------------5---------------------------------|
-------------------------------------------------------|
-------------------------------------------------------|
-------------------------------------------------------|


A
Shaking it off
                         E
Shaking off all of the pain
A
Breaking my heart
                         E
Breaking my heart once again

                     A/G#   A     A/G#    A
I want someone to love me
           E/D#   E    E/D#   E
For who I am
                    A/G#   A     A/G#    A
I want someone to need me
           E/D#   E    E/D#   E
Is that so bad?
                    A/G#   A     A/G#    A
I want a break of madness
                E/D#   E    E/D#   E
But it's all I have
                     A/G#   A    B
I want someone to love me
           E
For who I am

E   A   E   A    E    A  B

Solo

----------------------------------------------------------------------------------------------|
-----9---7---9---12---4---2--4--7--2--0---0--2--0-----{2x}--------10--9--7--5---12^b---9--12--|
----------------------------------------------------------------------------------------------|
----------------------------------------------------------------------------------------------|
----------------------------------------------------------------------------------------------|
----------------------------------------------------------------------------------------------|

---12^b----9---12--9----16--|
----------------------------|
----------------------------|
----------------------------|
----------------------------|
----------------------------|


                     A/G#   A     A/G#    A
I want someone to love me
           E/D#   E    E/D#   E
For who I am
                    A/G#   A     A/G#    A
I want someone to need me
           E/D#   E    E/D#   E
Is that so bad?
                    A/G#   A     A/G#    A
I want a break of madness
                E/D#   E    E/D#   E
But it's all I have
                     A/G#   A    B
I want someone to love me
           E
For who I am
            
Submit corrections

comments powered by Disqus
↑ Back to top | Nick Jonas And The Administration Tabs for Who I Am. Lyrics for acoustic guitar and electric guitar. Tablatures and chords are parodies/interpretations of the original songs. You may use it for private study, scholarship, research or language learning purposes only