» » »

Tonight Tabs (ver.2)

Artists:  A B C D E F G H I J K L M N O P Q R S T U V W X Y Z # 

Tonight Tabs (ver.2)

Nick Jonas And The Administration
Rating:
5/5 (1 vote)

Hard to play? Try these video lessons and learn fast.
                                Tonight – Nick Jonas and the Administration

Not too sure how accurate this is.
But, it seems pretty accurate.
Leave a comment, if you have any corrections :D

Don't strum, pluck with your fingers.

Intro:
e|------------------------------------------------|
B|------------------------------------------------|
G|-9-9-9\8/9--9-9-9\8/9--9-9-9\8/9--9-9-14-14-13--|
D|-x-x-x\x/x--x-x-x\x/x--x-x-x\x/x--x-x-x--x--x---| x4
A|-7-7-7\6/7--7-7-7\6/7--7-7-7\6/7--7-7-12-12-11--|
E|------------------------------------------------|

Verse:
e|-------------|    |--------------|
B|-------------|    |--------------|
G|-6~----------|    |--------------|
D|-6~--9~--7~--| x3 |--4~--7~--9~--|
A|-4~--9~--7~--|    |--4~--7~--9~--|
E|-----7~--5~--|    |--2~--5~--7~--|

Chorus:
e|-------------|
B|-------------|
G|-9~----------| 
D|-9~--9~--7~--| x4
A|-7~--9~--7~--|
E|-----7~--5~--|

Post-chorus:
e|------------------------------------------------|
B|------------------------------------------------|
G|-9-9-9\8/9--9-9-9\8/9--9-9-9\8/9--9-9-14-14-13--|
D|-x-x-x\x/x--x-x-x\x/x--x-x-x\x/x--x-x-x--x--x---| x2
A|-7-7-7\6/7--7-7-7\6/7--7-7-7\6/7--7-7-12-12-11--|
E|------------------------------------------------|

Verse:
e|-------------|    |--------------|
B|-------------|    |--------------|
G|-6~----------|    |--------------|
D|-6~--9~--7~--| x3 |--4~--7~--9~--|
A|-4~--9~--7~--|    |--4~--7~--9~--|
E|-----7~--5~--|    |--2~--5~--7~--|

Chorus:
e|-------------|
B|-------------|
G|-9~----------| 
D|-9~--9~--7~--| x4
A|-7~--9~--7~--|
E|-----7~--5~--|

Bridge: (not too sure about this)
e|-------------|    |----------------------------------------|
B|-------------|    |----------------------------------------|
G|-6~----------|    |--4--7--6~----------6~--------------2~--|
D|-6~--7~--4~--| x2 |--4--7--6~--7~--4~--6~--7~--4~--2~--2~--|
A|-4~--7~--4~--|    |--2--5--4~--7~--4~--4~--7~--4~--2~--0~--|
E|-----5~--2~--|    |------------5~--2~------5~--2~--0~------|

Solo:
Credit to XxGuitarZer0xX for this:
e|--------------------------------------------------------------------|
B|-------------------------------------------9-----9------------------|
G|-7/9h11p9h11--9h11p9p6--4h6-6p4-------4h6--11b13----7h9-7--4h6-4h6--|
D|--------------------------------6--/6-------------------------------|
A|--------------------------------------------------------------------|
E|--------------------------------------------------------------------|

Chorus:
e|-------------|
B|-------------|
G|-9~----------| 
D|-9~--9~--7~--| x2
A|-7~--9~--7~--|
E|-----7~--5~--|

Outro:
e|------------------------------------------------|
B|------------------------------------------------|
G|-9-9-9\8/9--9-9-9\8/9--9-9-9\8/9--9-9-14-14-13--|
D|-x-x-x\x/x--x-x-x\x/x--x-x-x\x/x--x-x-x--x--x---| x4
A|-7-7-7\6/7--7-7-7\6/7--7-7-7\6/7--7-7-12-12-11--|
E|------------------------------------------------|
            
Hard to play? Try these video lessons and learn fast. | Correct




comments powered by Disqus
↑ Back to top | Tablatures and chords are parodies/interpretations of the original songs. You may use it for private study, scholarship, research or language learning purposes only