» » »

Nick Jonas And The Administration, Tonight Tabs (ver.1)

Artists:  A B C D E F G H I J K L M N O P Q R S T U V W X Y Z # 

Tonight Tabs (ver.1)

Nick Jonas And The Administration Tabs
 Rating:
3.7/5 (6 votes)
Tonight lessons Tabs too difficult? Try these video lessons and learn fast
                -----------------------------------------------------------------------------
                     Tonight - Nick Jonas @ the Administration
-----------------------------------------------------------------------------




Tuning:   Standard


This is the new version of the Jonas Brothers original, Tonight.

I like this version a lot.....And its a whole lot of fun to play on the guitar.


The intro can be played many ways so find what you like best.


This is 100% correct so enjoy!






Intro - Guitar 1 - this is 1 way of playing this part.
e|-----------------|
B|-----------------|
G|-9--9--9--9-9-9--|
D|-9--9--9--9-9-9--|Repeat until verse.
A|-7--7--7--7-6-7--|
E|-----------------|

or you can play it this way.
e|-----------------|
B|-----------------|
G|-9--9--9--9-8-9--|
D|-9--9--9--9-9-9--|Repeat until verse.
A|-----------------|
E|-----------------|

or finally, like this.
e|-----------------|
B|-----------------|
G|-9--9--9--9-8-9--|
D|-x--x--x--x-x-x--|Repeat until verse.
A|-7--7--7--7-6-7--|
E|-----------------|

Intro - Guitar 2 -
e|------------------------------|
B|------------------------------|
G|-9~--4~--2~----9~--4~--2~-----|
D|-9~--4~--2~----9~--4~--2~-----|Repeat once more.
A|-7~--2~--0~--2-7~--2~--0~--2--|
E|------------------------------|




Verse - Both Guitars
e|----------------------------|
B|----------------------------|
G|-6~--4~--2~----6~--4~--2~---|
D|-6~--4~--2~----6~--4~--2~---|Repeat until Pre_Chorus.
A|-4~--2~--0~--2-4~--2~--0~-2-|
E|----------------------------|




Pre_Chorus - Both Guitars or just Guitar 1
e|--------------------|
B|--------------------|
G|--------------------|
D|-44444444-7777-9999-|
A|-44444444-7777-9999-|
E|-22222222-5555-7777-|




Chorus
e|---------------------------------------|
B|---------------------------------------|
G|-9999-8888-22222222-9999-8888-22222222-|
D|-9999-9999-22222222-9999-9999-22222222-|Repeat once more.
A|-7777-6666-00000000-7777-6666-00000000-|
E|---------------------------------------|




Intro Repeated - Guitar 1 - this is 1 way of playing this part.
e|-----------------|
B|-----------------|
G|-9--9--9--9-9-9--|
D|-9--9--9--9-9-9--|Repeat until verse.
A|-7--7--7--7-6-7--|
E|-----------------|

or you can play it this way.
e|-----------------|
B|-----------------|
G|-9--9--9--9-8-9--|
D|-9--9--9--9-9-9--|Repeat until verse.
A|-----------------|
E|-----------------|

or finally, like this.
e|------------------|
B|------------------|
G|--9--9--9--9-8-9--|
D|--x--x--x--x-x-x--|Repeat until verse.
A|--7--7--7--7-6-7--|
E|------------------|

Intro Repeated - Guitar 2 -
e|------------------------------|
B|------------------------------|
G|-9~--4~--2~----9~--4~--2~-----|
D|-9~--4~--2~----9~--4~--2~-----|Repeat once more.
A|-7~--2~--0~--2-7~--2~--0~--2--|
E|------------------------------|




Verse - Both Guitars
e|----------------------------|
B|----------------------------|
G|-6~--4~--2~----6~--4~--2~---|
D|-6~--4~--2~----6~--4~--2~---|Repeat until Pre_Chorus.
A|-4~--2~--0~--2-4~--2~--0~-2-|
E|----------------------------|




Pre_Chorus - Both Guitars or just Guitar 1
e|--------------------|
B|--------------------|
G|--------------------|
D|-44444444-7777-9999-|
A|-44444444-7777-9999-|
E|-22222222-5555-7777-|




Chorus - Both Guitars
e|---------------------------------------|
B|---------------------------------------|
G|-9999-8888-22222222-9999-8888-22222222-|
D|-9999-9999-22222222-9999-9999-22222222-|Repeat once more.
A|-7777-6666-00000000-7777-6666-00000000-|
E|---------------------------------------|




Bridge - Both Guitars
e|------------------------------------------------------------------------------|
B|------------------------------------------------------------------------------|
G|-6666-2222------4444-6666-2222------44-55-6666-2222------4444-6666-2222-------|
D|-6666-2222-4444-4444-6666-2222-4444-44-66-6666-2222-4444-4444-6666-2222-4~-9~-|
A|-4444-0000-4444-2222-4444-0000-4444-22-33-4444-0000-4444-2222-4444-0000-4~-9~-|
E|-----------2222----------------2222-----------------2222----------------2~-7~|




Guitar Solo - Guitar 1
e|--------------------------------------------------------------------|
B|-------------------------------------------9-----9------------------|
G|-7/9h11p9h11--9h11p9p6--4h6-6p4-------4h6--11b13----7h9-7--4h6-4h6--|
D|--------------------------------6--/6-------------------------------|
A|--------------------------------------------------------------------|
E|--------------------------------------------------------------------|

Guitar Solo - Guitar 2
e|---------------------------------------|
B|---------------------------------------|
G|-9999-8888-22222222-9999-8888-22222222-|
D|-9999-9999-22222222-9999-9999-22222222-|
A|-7777-6666-00000000-7777-6666-00000000-|
E|---------------------------------------|




Chorus and Outro
Chorus - Both Guitars
e|---------------------------------------|
B|---------------------------------------|
G|-9999-8888-22222222-9999-8888-22222222-|
D|-9999-9999-22222222-9999-9999-22222222-|Repeat until the song fades out
A|-7777-6666-00000000-7777-6666-00000000-|
E|---------------------------------------|




There you go and enjoy.....
            
Submit corrections

comments powered by Disqus
↑ Back to top | Nick Jonas And The Administration Tabs for Tonight. Lyrics for acoustic guitar and electric guitar. Tablatures and chords are parodies/interpretations of the original songs. You may use it for private study, scholarship, research or language learning purposes only