» » »

London Foolishly Tabs (ver.1)

Artists:  A B C D E F G H I J K L M N O P Q R S T U V W X Y Z # 

London Foolishly Tabs (ver.1)

Nick Jonas And The Administration
Rating:
5/5 (16 votes)

Hard to play? Try these video lessons and learn fast.
                INTRO
|----------------7---8---8---8---8----------------|
|---7--9------------------------------------------|
|-----------5-------------------------------------|          X2
|----0---0---0---0---0---0---0---0----------------|
|----0---0---0---0---0---0---0---0----------------|
|-------------------------------------------------|

VERSE
|--------------7---8---8---8---8----|
|--7---9----------------------------|
|-----------5-----------------------|          X5
|----0---0---0---0---0---0---0---0--|
|----0---0---0---0---0---0---0---0--|
|-----------------------------------|

CHORUS
|--5----5---5---5---0---0---0---0--2--3----3---3---3-------------------|
|------------------------------------------------------5---5---5---5---|
|----------------------------------------------------------------------|   X2
|----0----0---0---0---0---0---0----------0---0---0---0---0---0---0---0-|
|----0----0---0---0---0---0---0----------0---0---0---0---0---0---0---0-|
|----------------------------------------------------------------------|

|------------------------------------------------------|
|--3---3---3---3---5---5---5---5---3---3---3---3---5-6-|
|------------------------------------------------------|
|----0---0---0---0---0---0---0---0---0---0---0---0-----|
|----0---0---0---0---0---0---0---0---0---0---0---0-----|
|------------------------------------------------------|

VERSE
|--------------7---8---8---8---8----|
|--7---9----------------------------|
|-----------5-----------------------|          X7
|----0---0---0---0---0---0---0---0--|
|----0---0---0---0---0---0---0---0--|
|-----------------------------------|

CHORUS
|--5----5---5---5---0---0---0---0--2--3----3---3---3-------------------|
|------------------------------------------------------5---5---5---5---|
|----------------------------------------------------------------------|   X2
|----0----0---0---0---0---0---0----------0---0---0---0---0---0---0---0-|
|----0----0---0---0---0---0---0----------0---0---0---0---0---0---0---0-|
|----------------------------------------------------------------------|

|-----------------------------------------------------|
|--3---3---3---3---5---5---5---5---3---3---3---3---5--|
|-----------------------------------------------------|
|----0---0---0---0---0---0---0---0---0---0---0---0----|
|----0---0---0---0---0---0---0---0---0---0---0---0----|
|-----------------------------------------------------|

VERSE
|----------------7---8---8---8---8-|
|--7---9---------------------------|
|-----------5----------------------|          X4
|----0---0---0---0---0---0---0---0-|
|----0---0---0---0---0---0---0---0-|
|----------------------------------|

CHORUS
|--5----5---5---5---0---0---0---0--2--3----3---3---3-------------------|
|------------------------------------------------------5---5---5---5---|
|----------------------------------------------------------------------|   X2
|----0----0---0---0---0---0---0----------0---0---0---0---0---0---0---0-|
|----0----0---0---0---0---0---0----------0---0---0---0---0---0---0---0-|
|----------------------------------------------------------------------|

|------------------------------------------------------|
|--3---3---3---3---5---5---5---5---3---3---3---3---5-6-|
|------------------------------------------------------|
|----0---0---0---0---0---0---0---0---0---0---0---0-----|
|----0---0---0---0---0---0---0---0---0---0---0---0-----|
|------------------------------------------------------|

ENDING
|----------------7---8---8---8---8-----------------7---8-|
|--7---9-------------------------------7---9-------------|
|----------5-----------------------------------5---------|
|----0---0---0---0---0---0---0---0---0---0---0---0---0---|
|----0---0---0---0---0---0---0---0---0---0---0---0---0---|
|--------------------------------------------------------|
            
Hard to play? Try these video lessons and learn fast. | Correct




comments powered by Disqus
↑ Back to top | Tablatures and chords are parodies/interpretations of the original songs. You may use it for private study, scholarship, research or language learning purposes only