>
 >
London Foolishly

London Foolishly Guitar Tabs

Nick Jonas And The Administration - London Foolishly chords, tabs, tablatures, lyrics

Guitar lessons | Add/correct | Request | Top 50 tabs Artists:  A B C D E F G H I J K L M N O P Q R S T U V W X Y Z 0-9

London Foolishly Guitar Tabs – Nick Jonas And The Administration

CD, Sheet music, Poster

Do you like London Foolishly? Share with your friends now
TabsTabs v2
This is a new song that nick played on his live chat so I don't know if it is for 
the or for the jonas brothers, but I uploaded it here.

PLEASE RATE AND COMMENT


INTRO
e|---------------------------------|
B|---0---0---0---0---0---0---0---0-|
G|---0---0---0---0---0---0---0---0-|
D|---------------------------------|
A|-7---9--10-----------------------|
E|-------------7---8---8---8---8---|

e|---------------------------------|
B|---0---0---0---0---0---0---0---0-|
G|---0---0---0---0---0---0---0---0-|
D|---------------------------------|
A|-7---9--10--12-------------------|
E|-----------------8---8---8---8---|

VERSE
e|---------------------------------|
B|---0---0---0---0---0---0---0---0-|
G|---0---0---0---0---0---0---0---0-| x5
D|---------------------------------|
A|-7---9--10-----------------------|
E|-------------7---8---8---8---8---|

CHORUS
e|-----------------------------------------------------------------|
B|---0---0---0---0---0---0---0-------0---0---0---0---0---0---0---0-|
G|---0---0---0---0---0---0---0-------0---0---0---0---0---0---0---0-| x3
D|-----------------------------------------------------------------|
A|-------------------------------------------------5---5---5---5---|
E|-5---5---5---5---0---0---0---0-2-3---3---3---3-------------------|

e|---------------------------------------------------------|
B|---0---0---0---0---0---0---0---0---0---0---0---0---0---0-|
G|---0---0---0---0---0---0---0---0---0---0---0---0---0---0-|
D|---------------------------------------------------------|
A|-3---3---3---3---5---5---5---5---3---3---3---3-----5---6-|
E|---------------------------------------------------------|

INTRO 2
e|---------------------------------|
B|---0---0---0---0---0---0---0---0-|
G|---0---0---0---0---0---0---0---0-| x2
D|---------------------------------|
A|-7---9--10-----------------------|
E|-------------7---8---8---8---8---|

VERSE
e|---------------------------------|
B|---0---0---0---0---0---0---0---0-|
G|---0---0---0---0---0---0---0---0-| x4
D|---------------------------------|
A|-7---9--10-----------------------|
E|-------------7---8---8---8---8---|

CHORUS
e|-----------------------------------------------------------------|
B|---0---0---0---0---0---0---0-------0---0---0---0---0---0---0---0-|
G|---0---0---0---0---0---0---0-------0---0---0---0---0---0---0---0-| x2
D|-----------------------------------------------------------------|
A|-------------------------------------------------5---5---5---5---|
E|-5---5---5---5---0---0---0---0-2-3---3---3---3-------------------|

e|-----------------------------------------------------|
B|---0---0---0---0---0---0---0---0---0---0---0---0---0-|
G|---0---0---0---0---0---0---0---0---0---0---0---0---0-|
D|-----------------------------------------------------|
A|-3---3---3---3---5---5---5---5---3---3---3---3-----5-|
E|-----------------------------------------------------|

BRIDGE
e|---------------------------------|
B|---0---0---0---0---0---0---0---0-|
G|---0---0---0---0---0---0---0---0-| x4
D|---------------------------------|
A|-7---9--10-----------------------|
E|-------------7---8---8---8---8---|

CHORUS
e|-----------------------------------------------------------------|
B|---0---0---0---0---0---0---0-------0---0---0---0---0---0---0---0-|
G|---0---0---0---0---0---0---0-------0---0---0---0---0---0---0---0-| x2
D|-----------------------------------------------------------------|
A|-------------------------------------------------5---5---5---5---|
E|-5---5---5---5---0---0---0---0-2-3---3---3---3-------------------|

e|---------------------------------------------------------|
B|---0---0---0---0---0---0---0---0---0---0---0---0---0---0-|
G|---0---0---0---0---0---0---0---0---0---0---0---0---0---0-|
D|---------------------------------------------------------|
A|-3---3---3---3---5---5---5---5---3---3---3---3-----5---6-|
E|---------------------------------------------------------|

OUTRO
e|---------------------------------|
B|---0---0---0---0---0---0---0---0-|
G|---0---0---0---0---0---0---0---0-|
D|---------------------------------|
A|-7---9--10-----------------------|
E|-------------7---8---8---8---8---|

e|-------------------|
B|---0---0---0---0-0-|
G|---0---0---0---0-0-|
D|-------------------|
A|-7---9--10---------|
E|-------------7---8-|

DON'T FORGET TO RATE





Comments


Popular Nick Jonas And The Administration tabs & chords
Inseparable Chords
Stay Chords
Stronger (Back On The Ground) Chords
Vespers Goodbye 3 Chords
Who I Am 5 Chords
Rose Garden 1 Tabs
Rose Garden 4 Tabs
Tonight Tabs
While The World Is Spinning Tabs
Rose Garden Ukulele


Song lyrics



↑ Back to top | Tablatures and chords are parodies/interpretations of the original songs. You may use it for private study, scholarship, research or language learning purposes only
© 2014 AZChords.com Contact us | Privacy policy | DMCA | Add/correct tabs | Request tabs | Top 50 tabs