>
 >
Last Time Around

Last Time Around Guitar Tabs

Nick Jonas And The Administration - Last Time Around chords, tabs, tablatures, lyrics

Guitar lessons | Add/correct | Request | Top 50 tabs Artists:  A B C D E F G H I J K L M N O P Q R S T U V W X Y Z 0-9

Last Time Around Guitar Tabs – Nick Jonas And The Administration

CD, Sheet music, Poster

Do you like Last Time Around? Share with your friends now
ChordsChords v2TabsTabs v2Tabs v3Tabs v4Ukulele
-------------------------------------------------------------------------------
               LAST TIME AROUD - Nick Jonas & The Administration
-------------------------------------------------------------------------------

This is only what nick plays
I't easier if you tune the 3rd string half step down (Gb)
the verse, the pre-chorus and the chorus is with a little bit of wah-wah effect so 
use it if you can.
Please rate, I think it's 100% right so.

Em:
 e|---|
 B|---|
 G|---|
 D|-2-|
 A|-2-|
 E|-0-|

G:
 e|---|
 B|---|
 G|---|
 D|-5-|
 A|-5-|
 E|-3-|

A:
 e|---|
 B|---|
 G|---|
 D|-7-|
 A|-7-|
 E|-5-|

___________________________________________________________


INTRO x2
 e|--------------------------|
 B|--------------------------|
 G|------0-------------------|
 D|--0h2---------------------|
 A|--------------------------|  x14
 E|--------------------------|

 e|--------------------------|
 B|--------------------------|
 G|--------------------------|
 D|------0-------------------|
 A|--0h2---------------------|  x2
 E|--------------------------|

VERSE
 e|-------------------------------------------|
 B|-------------------------------------------|
 G|-------------------------------------------|
 D|-------------------------------------------|
 A|-------------------------------------------|
 E|-0--0-3--3-5--5-3--3-0--0-3--3-5--3--5--3--|  x2

PRE-CHORUS
 e|--------------|
 B|--------------|
 G|--------------|
 D|--------------|
 A|--------------|
 E|--7-5-3-3/7-5-|

CHORUS
 e|-----------------------------------------|
 B|-----------------------------------------|
 G|-----------------------------------------|
 D|-----------------------------------------|
 A|-----------------------------------------|
 E|-0--0-3--3-5--5-3--3-0--0-3--3-5--5-3--3-|  x2

INTRO x2
 e|--------------------------|
 B|--------------------------|
 G|------0-------------------|
 D|--0h2---------------------|
 A|--------------------------|  x14
 E|--------------------------|

 e|--------------------------|
 B|--------------------------|
 G|--------------------------|
 D|------0-------------------|
 A|--0h2---------------------|  x2
 E|--------------------------|

VERSE
 e|-------------------------------------------|
 B|-------------------------------------------|
 G|-------------------------------------------|
 D|-------------------------------------------|
 A|-------------------------------------------|
 E|-0--0-3--3-5--5-3--3-0--0-3--3-5--3--5--3--|  x2

PRE-CHORUS
 e|--------------|
 B|--------------|
 G|--------------|
 D|--------------|
 A|--------------|
 E|--7-5-3-3/7-5-|

CHORUS
 e|-----------------------------------------|
 B|-----------------------------------------|
 G|-----------------------------------------|
 D|-----------------------------------------|
 A|-----------------------------------------|
 E|-0--0-3--3-5--5-3--3-0--0-3--3-5--5-3--3-|  x2

BRIDGE
 e|-------------------------------------------|
 B|-------------------------------------------|
 G|-------------------------------------------|
 D|---------------------------------------7-5-|
 A|----------5----------------------5-----7-5-|  x4
 E|--0-0h5-7---7--3h5p3-0-3-0-0h5-7---7---5-3-|

INTRO x2
 e|--------------------------|
 B|--------------------------|
 G|------0-------------------|
 D|--0h2---------------------|
 A|--------------------------|  x14
 E|--------------------------|

 e|--------------------------|
 B|--------------------------|
 G|--------------------------|
 D|------0-------------------|
 A|--0h2---------------------|  x2
 E|--------------------------|

CHORUS
Em - G - A - G x8

INTRO x2
 e|--------------------------|
 B|--------------------------|
 G|------0-------------------|
 D|--0h2---------------------|
 A|--------------------------|  x14
 E|--------------------------|

 e|--------------------------|
 B|--------------------------|
 G|--------------------------|
 D|------0-------------------|
 A|--0h2---------------------|  x2
 E|--------------------------|

Em

OUTRO
 e|-------------------------------------------|
 B|-------------------------------------------|
 G|-------------------------------------------|
 D|---------------------------------------7-5-|
 A|----------5----------------------5-----7-5-|  x7
 E|--0-0h5-7---7--3h5p3-0-3-0-0h5-7---7---5-3-|

 e|----------------------------------------------|
 B|----------------------------------------------|
 G|----------------------------------------------|
 D|---------------------------------------7-5-2~-|
 A|----------5----------------------5-----7-5-2~-|
 E|--0-0h5-7---7--3h5p3-0-3-0-0h5-7---7---5-3-0~-|

Em


Don't forget to rate ;)





Comments


Popular Nick Jonas And The Administration tabs & chords
Olive And An Arrow Chords
Rose Garden Chords
Who I Am 3 Chords
Rose Garden 1 Tabs
Rose Garden 2 Tabs
Stronger (Back On The Ground) Tabs
Tonight 1 Tabs
Tonight 2 Tabs
Vesper's Goodbye 1 Tabs
Hey Were Gonna Be Alright Ukulele


Song lyrics



↑ Back to top | Tablatures and chords are parodies/interpretations of the original songs. You may use it for private study, scholarship, research or language learning purposes only
© 2014 AZChords.com Contact us | Privacy policy | DMCA | Add/correct tabs | Request tabs | Top 50 tabs