» » »

Conspiracy Theory Tabs (ver.1)

Artists:  A B C D E F G H I J K L M N O P Q R S T U V W X Y Z # 

Conspiracy Theory Tabs (ver.1)

Nick Jonas And The Administration
Rating:
5/5 (4 votes)

Hard to play? Try these video lessons and learn fast.
                           Conspiracy Theory – Nick Jonas and the Administration

Not too sure on the riff for the chorus. 
But, the rest seems right. 
Leave a comment if you have any corrections :D 

**NOTE: This song is NOT in standard tuning! It's in Eb**

Intro:
eb|---------------------------| |-------------------------------------------------|
Bb|---------------------------| |-------------------------------------------------|
Gb|---------------------------| |-------------------------------------------------|
Db|---------------------------| |-------------------------------------------------| x2
Ab|-5h7---5h7---5h7-5h7-5h7---| |-5h7---5h7---5h7-5h7-5h7-------------------------|
Eb|-----0-----0-------------0-| |-----0-----0-------------0-5h7-5-5h7-5-5h7-5-3-0-|

Verse:
eb|--------------------------------|
Bb|--------------------------------|
Gb|-9\-----------------------------|
Db|-9\-----------------------------| x2
Ab|-7\--5h7---5h7---5h7-5h7-5h7----|
Eb|---------0-----0-------------0--|

Chorus:
eb|----------------xxxx---------------xxxx------------------------------|
Bb|----------------xxxx---------------xxxx------------------------------|
Gb|----------------xxxx---------------xxxx------------------------------|
Db|----------------xxxx---------------xxxx------------------------------| x2
Ab|------3-4-3-----xxxx-----5-6-5-----xxxx--5h7---5h7---5h7-5h7-5h7-----|
Eb|-4-6--------6-4-xxxx-6-8-------8-6-xxxx------0-----0--------------0--|

Verse:
eb|--------------------------------|
Bb|--------------------------------|
Gb|-9\-----------------------------|
Db|-9\-----------------------------| x2
Ab|-7\--5h7---5h7---5h7-5h7-5h7----|
Eb|---------0-----0-------------0--|

Chorus: 
eb|----------------xxxx---------------xxxx------------------------------|
Bb|----------------xxxx---------------xxxx------------------------------|
Gb|----------------xxxx---------------xxxx------------------------------|
Db|----------------xxxx---------------xxxx------------------------------| x2
Ab|------3-4-3-----xxxx-----5-6-5-----xxxx--5h7---5h7---5h7-5h7-5h7-----|
Eb|-4-6--------6-4-xxxx-6-8-------8-6-xxxx------0-----0--------------0--|

Bridge:
eb|-----------------------------------------|    |-------------------|
Bb|-----------------------------------------|    |-------------------|
Gb|-----------------------------------------|    |-------------------|
Db|-----5---------5-------------------------| x4 |-------------------| x4
Ab|-5-7---7~--5-7---7~------5---------5-----|    |-7-7-7-7--7-7-7-7--|
Eb|---------------------5-7---7~--5-7---7~--|    |-0-0-0-0--0-0-0-0--|

Verse:
eb|-----| |-----------------------------------------------------------|
Bb|-----| |-----------------------------------------------------------|
Gb|-----| |----------------------------9\-----------------------------|
Db|-----| |----------------------------9\-----------------------------|
Ab|-7~--| |-5h7---5h7---5h7-5h7-5h7----7\--5h7---5h7---5h7-5h7-5h7----|
Eb|-0~--| |-----0-----0-------------0----------0-----0-------------0--|

Chorus:
eb|----------------xxxx---------------xxxx--|
Bb|----------------xxxx---------------xxxx--|
Gb|----------------xxxx---------------xxxx--|
Db|----------------xxxx---------------xxxx--| x2
Ab|------3-4-3-----xxxx-----5-6-5-----xxxx--|
Eb|-4-6--------6-4-xxxx-6-8-------8-6-xxxx--|

Outro:
eb|----------------------------| |-----------------------------------------|
Bb|----------------------------| |-----------------------------------------|
Gb|----------------------------| |-----------------------------------------|
Db|----------------------------| |-----5---------5-------------------------| x2
Ab|-5h7---5h7---5h7-5h7-5h7----| |-5-7---7~--5-7---7~------5---------5-----|
Eb|-----0-----0-------------0--| |---------------------5-7---7~--5-7---7~--|

eb|-------------------------------------------------------|
Bb|-------------------------------------------------------|
Gb|-------------------------------------------------------|
Db|---------------5-4--5-7-5-4-5-4------------------------|
Ab|-3-5-7-5--5-7--------------------7-5-2-3--3-2----------|
Eb|-----------------------------------------------3-2-0~--|

eb|-------------------------------|
Bb|-------------------------------|
Gb|-------------------------------|
Db|-------------------------------|
Ab|-5h7---5h7---5h7-5h7-5h7--7-7--|
Eb|-----0-----0--------------0-0--|
            
Hard to play? Try these video lessons and learn fast. | Correct




comments powered by Disqus
↑ Back to top | Tablatures and chords are parodies/interpretations of the original songs. You may use it for private study, scholarship, research or language learning purposes only