» » »

Nickelback, Far Away Tabs (ver.1)

Artists:  A B C D E F G H I J K L M N O P Q R S T U V W X Y Z # 

Far Away Tabs (ver.1)

Nickelback Tabs
 Rating:
4/5 (4 votes)
Far Away lessons Tabs too difficult? Try these video lessons and learn fast
1
                Far Away -- Nickelback
This is the actual version. there isn't a single one in the net like this version. my 
tushar helped me with it(so special thanks to him)
song's dedicated to ayemllong ( he luvs it)  actually he asked me to tab it. so here it 
buddy.
(gud song heared in 22222222222222 many  times to tab it).

   INTRO
E||--------------------------|--------------------------|
B||--------0--------0-----0--|--------0--------0-----0--|
G||--------------3-----3-----|--------------3-----3-----|
D||-----4-----4--------------|-----4-----4--------------|
A||--2-----------------------|--------------------------|
E||--------------------------|--2-----------------------|

--------------------------|--------------------------|
--------0--------0-----0--|--------0-----2-----------|
--------------3-----3-----|-----------------4-----4--|
-----4-----4--------------|-----4-----4--------4-----|
--------------------------|--------------------------|
--4-----------------------|--0-----------------------|

VERSE 1
              This time                This place
--------------------------|--------------------------|
--------0--------0-----0--|--------0--------0-----0--|
--------------3-----3-----|--------------3-----3-----|
-----4-----4--------------|-----4-----4--------------|
--2-----------------------|--------------------------|
--------------------------|--2-----------------------|


              Misused                   Mistakes
--------------------------|--------------------------|
--------0--------0-----0--|--------0-----2-----------|
--------------3-----3-----|-----------------4-----4--|
-----4-----4--------------|-----4-----4--------4-----|
--------------------------|--------------------------|
--4-----------------------|--0-----------------------|


             Too long                 Too late
--------------------------|--------------------------|
--------0--------0-----0--|--------0--------0-----0--|
--------------3-----3-----|--------------3-----3-----|
-----4-----4--------------|-----4-----4--------------|
--2-----------------------|--------------------------|
--------------------------|--2-----------------------|


            Who was I          to make you wait
--------------------------|--------------------------|
--------0--------0-----0--|--------0-----2-----------|
--------------3-----3-----|-----------------4-----4--|
-----4-----4--------------|-----4-----4--------4-----|
--------------------------|--------------------------|
--4-----------------------|--0-----------------------|

           Just one chance           Just one breath
--------------------------|--------------------------|
--------0--------0-----0--|--------0--------0-----0--|
--------------3-----3-----|--------------3-----3-----|
-----4-----4--------------|-----4-----4--------------|
--2-----------------------|--------------------------|
--------------------------|--2-----------------------|

           Just in case        there’s just one left
--------------------------|--------------------------|
--------0--------0-----0--|--------0-----2-----------|
--------------3-----3-----|-----------------4-----4--|
-----4-----4--------------|-----4-----4--------4-----|
--------------------------|--------------------------|
--4-----------------------|--0-----------------------|


         ‘Cause you know,           you know
--------------------------|--------------------------|
--------------4-----------|--------------4-----------|
--------6--------6-----6--|--------6--------6-----6--|
-----6-----6--------6-----|-----6-----6--------6-----|
--4-----------------------|--4-----------------------|
--------------------------|--------------------------|

                 you knowwwwwwwwwwww       CHORUS              That I
--------------------------|--0------------|       |-----------------------|
--------------7-----------|--0------------|       |--4----4----4----4--4--|
--------9--------9-----9--|--1------------|       |--4----4----4----4--4--|
-----9-----9--------9-----|--2------------|       |--4----4----4----4--4--|
--7-----------------------|--2------------|       |--2----2----2----2--2--|
--------------------------|--0------------|       |-----------------------|

love you                  I have        loved you all along
--2----2----2----2--2--|--4----4----4----4--4--|--0----0----0----0--0--|
--2----2----2----2--2--|--4----4----4----4--4--|--0----0----0----0--0--|
--3----3----3----3--3--|--4----4----4----4--4--|--1----1----1----1--1--|
--4----4----4----4--4--|--6----6----6----6--6--|--2----2----2----2--2--|
--4----4----4----4--4--|--6----6----6----6--6--|--2----2----2----2--2--|
--2----2----2----2--2--|--4----4----4----4--4--|--0----0----0----0--0--|

           And I         miss you                            Been far
-----------------------|--2----2----2----2--2--|--4----4----4----4--4--|
--4----4----4----4--4--|--2----2----2----2--2--|--4----4----4----4--4--|
--4----4----4----4--4--|--3----3----3----3--3--|--4----4----4----4--4--|
--4----4----4----4--4--|--4----4----4----4--4--|--6----6----6----6--6--|
--2----2----2----2--2--|--4----4----4----4--4--|--6----6----6----6--6--|
-----------------------|--2----2----2----2--2--|--4----4----4----4--4--|


 away for far too long                I keep     dreami......ng
--0----0----0----0--0--|-----------------------|--2----2----2----2--2--|
--0----0----0----0--0--|--4----4----4----4--4--|--2----2----2----2--2--|
--1----1----1----1--1--|--4----4----4----4--4--|--3----3----3----3--3--|
--2----2----2----2--2--|--4----4----4----4--4--|--4----4----4----4--4--|
--2----2----2----2--2--|--2----2----2----2--2--|--4----4----4----4--4--|
--0----0----0----0--0--|-----------------------|--2----2----2----2--2--|

     you’ll be      with me   and you’ll never go            Stop brea
--4----4----4----4--4--|--0----0----0----0--0--|-----------------------|
--4----4----4----4--4--|--0----0----0----0--0--|--4----4----4----4--4--|
--4----4----4----4--4--|--1----1----1----1--1--|--4----4----4----4--4--|
--6----6----6----6--6--|--2----2----2----2--2--|--4----4----4----4--4--|
--6----6----6----6--6--|--2----2----2----2--2--|--2----2----2----2--2--|
--4----4----4----4--4--|--0----0----0----0--0--|-----------------------|


 thi...........ng            if  I don’t         see you anymore
--2----2----2----2--2--|--4----4----4----4--4--|--0----------------|
--2----2----2----2--2--|--4----4----4----4--4--|--0----------------|
--3----3----3----3--3--|--4----4----4----4--4--|--1----------------|
--4----4----4----4--4--|--6----6----6----6--6--|--2----------------|
--4----4----4----4--4--|--6----6----6----6--6--|--2----------------|
--2----2----2----2--2--|--4----4----4----4--4--|--0----------------|


ACOUSTIC GUITAR 2 (PLAYED DURING THE CHORUS)

|--11----------11----------11------|
|------12----------12----------12--|
|----------11----------11----------|
|----------------------------------|
|----------------------------------|
|----------------------------------|


--9----------9----------9------|--9----------9----------9------|
-----12---------12---------12--|-----12---------12---------12--|
---------11---------11---------|---------11---------11---------|
-------------------------------|-------------------------------|
-------------------------------|-------------------------------|
-------------------------------|-------------------------------|

--9----------9----------9------|--11----------11----------11------|
-----12---------12---------12--|------12----------12----------12--|
---------11---------11---------|----------11----------11----------|
-------------------------------|----------------------------------|
-------------------------------|----------------------------------|
-------------------------------|----------------------------------|

--9----------9----------9------|--9----------9----------9------|
-----12---------12---------12--|-----12---------12---------12--|
---------11---------11---------|---------11---------11---------|
-------------------------------|-------------------------------|
-------------------------------|-------------------------------|
-------------------------------|-------------------------------|

--9----------9----------9------|--11----------11----------11------|
-----12---------12---------12--|------12----------12----------12--|
---------11---------11---------|----------11----------11----------|
-------------------------------|----------------------------------|
-------------------------------|----------------------------------|
-------------------------------|----------------------------------|


--9----------9----------9------|--9----------9----------9------|
-----12---------12---------12--|-----12---------12---------12--|
---------11---------11---------|---------11---------11---------|
-------------------------------|-------------------------------|
-------------------------------|-------------------------------|
-------------------------------|-------------------------------|

--9----------9----------9------|--11----------11----------11------|
-----12---------12---------12--|------12----------12----------12--|
---------11---------11---------|----------11----------11----------|
-------------------------------|----------------------------------|
-------------------------------|----------------------------------|
-------------------------------|----------------------------------|

--9----------9----------9------|--9----------9----------9------|
-----12---------12---------12--|-----12---------12---------12--|
---------11---------11---------|---------11---------11---------|
-------------------------------|-------------------------------|
-------------------------------|-------------------------------|
-------------------------------|-------------------------------|


  Riff before verse 2 (ACOUSTIC GUITAR 1)
|--------------------------|--------------------------|
|--------0--------0-----0--|--------0--------0-----0--|
|--------------3-----3-----|--------------3-----3-----|
|-----4-----4--------------|-----4-----4--------------|
|--2-----------------------|--------------------------|
|--------------------------|--2-----------------------|

--------------------------|--------------------------|
--------0--------0-----0--|--------0-----2-----------|
--------------3-----3-----|-----------------4-----4--|
-----4-----4--------------|-----4-----4--------4-----|
--------------------------|--------------------------|
--4-----------------------|--0-----------------------|


 VERSE 2

             On my knees                I’ll ask
--------------------------|--------------------------|
--------0--------0-----0--|--------0--------0-----0--|
--------------3-----3-----|--------------3-----3-----|
-----4-----4--------------|-----4-----4--------------|
--2-----------------------|--------------------------|
--------------------------|--2-----------------------|


             Last chance       for one last dance
--------------------------|--------------------------|
--------0--------0-----0--|--------0-----2-----------|
--------------3-----3-----|-----------------4-----4--|
-----4-----4--------------|-----4-----4--------4-----|
--------------------------|--------------------------|
--4-----------------------|--0-----------------------|


              Cause with you            I’d withstand
--------------------------|--------------------------|
--------0--------0-----0--|--------0--------0-----0--|
--------------3-----3-----|--------------3-----3-----|
-----4-----4--------------|-----4-----4--------------|
--2-----------------------|--------------------------|
--------------------------|--2-----------------------|


            All of hell       to hold your hand
--------------------------|--------------------------|
--------0--------0-----0--|--------0-----2-----------|
--------------3-----3-----|-----------------4-----4--|
-----4-----4--------------|-----4-----4--------4-----|
--------------------------|--------------------------|
--4-----------------------|--0-----------------------|


              I’d give it all          I’d give for us
--------------------------|--------------------------|
--------0--------0-----0--|--------0--------0-----0--|
--------------3-----3-----|--------------3-----3-----|
-----4-----4--------------|-----4-----4--------------|
--2-----------------------|--------------------------|
--------------------------|--2-----------------------|


            Give anything     but I won’t give up
--------------------------|--------------------------|
--------0--------0-----0--|--------0-----2-----------|
--------------3-----3-----|-----------------4-----4--|
-----4-----4--------------|-----4-----4--------4-----|
--------------------------|--------------------------|
--4-----------------------|--0-----------------------|

            ‘Cause you know,           you know
--------------------------|--------------------------|
--------------4-----------|--------------4-----------|
--------6--------6-----6--|--------6--------6-----6--|
-----6-----6--------6-----|-----6-----6--------6-----|
--4-----------------------|--4-----------------------|
--------------------------|--------------------------|

                 you knowwwwwwwwwwww       CHORUS              That I
--------------------------|--0------------|       |-----------------------|
--------------7-----------|--0------------|       |--4----4----4----4--4--|
--------9--------9-----9--|--1------------|       |--4----4----4----4--4--|
-----9-----9--------9-----|--2------------|       |--4----4----4----4--4--|
--7-----------------------|--2------------|       |--2----2----2----2--2--|
--------------------------|--0------------|       |-----------------------|

love you                  I have        loved you all along
--2----2----2----2--2--|--4----4----4----4--4--|--0----0----0----0--0--|
--2----2----2----2--2--|--4----4----4----4--4--|--0----0----0----0--0--|
--3----3----3----3--3--|--4----4----4----4--4--|--1----1----1----1--1--|
--4----4----4----4--4--|--6----6----6----6--6--|--2----2----2----2--2--|
--4----4----4----4--4--|--6----6----6----6--6--|--2----2----2----2--2--|
--2----2----2----2--2--|--4----4----4----4--4--|--0----0----0----0--0--|

           And I         miss you                            Been far
-----------------------|--2----2----2----2--2--|--4----4----4----4--4--|
--4----4----4----4--4--|--2----2----2----2--2--|--4----4----4----4--4--|
--4----4----4----4--4--|--3----3----3----3--3--|--4----4----4----4--4--|
--4----4----4----4--4--|--4----4----4----4--4--|--6----6----6----6--6--|
--2----2----2----2--2--|--4----4----4----4--4--|--6----6----6----6--6--|
-----------------------|--2----2----2----2--2--|--4----4----4----4--4--|


 away for far too long                I keep     dreami......ng
--0----0----0----0--0--|-----------------------|--2----2----2----2--2--|
--0----0----0----0--0--|--4----4----4----4--4--|--2----2----2----2--2--|
--1----1----1----1--1--|--4----4----4----4--4--|--3----3----3----3--3--|
--2----2----2----2--2--|--4----4----4----4--4--|--4----4----4----4--4--|
--2----2----2----2--2--|--2----2----2----2--2--|--4----4----4----4--4--|
--0----0----0----0--0--|-----------------------|--2----2----2----2--2--|

     you’ll be      with me   and you’ll never go            Stop brea
--4----4----4----4--4--|--0----0----0----0--0--|-----------------------|
--4----4----4----4--4--|--0----0----0----0--0--|--4----4----4----4--4--|
--4----4----4----4--4--|--1----1----1----1--1--|--4----4----4----4--4--|
--6----6----6----6--6--|--2----2----2----2--2--|--4----4----4----4--4--|
--6----6----6----6--6--|--2----2----2----2--2--|--2----2----2----2--2--|
--4----4----4----4--4--|--0----0----0----0--0--|-----------------------|


 thi...........ng            if  I don’t         see you anymore
--2----2----2----2--2--|--4----4----4----4--4--|--0----------------|
--2----2----2----2--2--|--4----4----4----4--4--|--0----------------|
--3----3----3----3--3--|--4----4----4----4--4--|--1----------------|
--4----4----4----4--4--|--6----6----6----6--6--|--2----------------|
--4----4----4----4--4--|--6----6----6----6--6--|--2----------------|
--2----2----2----2--2--|--4----4----4----4--4--|--0----------------|

////////////////////////ACOUSTIC GUITAR GOES ON IN THIS CHORUS LIKE VERSE 1////////////////


BRIDGE

               So far away             So far away
|--------------------------|--------------------------|
|--------0--------0-----0--|--------0--------0-----0--|
|--------------3-----3-----|--------------3-----3-----|
|-----4-----4--------------|-----4-----4--------------|
|--2-----------------------|--------------------------|
|--------------------------|--2-----------------------|


             Been far away      for far too long
--------------------------|--------------------------|
--------0--------0-----0--|--------0-----2-----------|
--------------3-----3-----|-----------------4-----4--|
-----4-----4--------------|-----4-----4--------4-----|
--------------------------|--------------------------|
--4-----------------------|--0-----------------------|


              So far away             So far away
--------------------------|--------------------------|
--------0--------0-----0--|--------0--------0-----0--|
--------------3-----3-----|--------------3-----3-----|
-----4-----4--------------|-----4-----4--------------|
--2-----------------------|--------------------------|
--------------------------|--2-----------------------|


              Been far away      for far too long
--------------------------|--------------------------|
--------0--------0-----0--|--------0-----2-----------|
--------------3-----3-----|-----------------4-----4--|
-----4-----4--------------|-----4-----4--------4-----|
--------------------------|--------------------------|
--4-----------------------|--0-----------------------|

 ‘Cause you know,           you know
--------------------------|--------------------------|
--------------4-----------|--------------4-----------|
--------6--------6-----6--|--------6--------6-----6--|
-----6-----6--------6-----|-----6-----6--------6-----|
--4-----------------------|--4-----------------------|
--------------------------|--------------------------|

                 you knowwwwwwwwwwww        CHORUS                  I
--------------------------|--0------------|       |-----------------------|
--------------7-----------|--0------------|       |--4----4----4----4--4--|
--------9--------9-----9--|--1------------|       |--4----4----4----4--4--|
-----9-----9--------9-----|--2------------|       |--4----4----4----4--4--|
--7-----------------------|--2------------|       |--2----2----2----2--2--|
--------------------------|--0------------|       |-----------------------|

 wanted                              I         wanted  you to stay
--2----2----2----2--2--|--4----4----4----4--4--|--0----0----0----0--0--|
--2----2----2----2--2--|--4----4----4----4--4--|--0----0----0----0--0--|
--3----3----3----3--3--|--4----4----4----4--4--|--1----1----1----1--1--|
--4----4----4----4--4--|--6----6----6----6--6--|--2----2----2----2--2--|
--4----4----4----4--4--|--6----6----6----6--6--|--2----2----2----2--2--|
--2----2----2----2--2--|--4----4----4----4--4--|--0----0----0----0--0--|

            Cause I        needed                 I need to hear you say
-----------------------|--2----2----2----2--2--|--4----------------|
--4----4----4----4--4--|--2----2----2----2--2--|--4----------------|
--4----4----4----4--4--|--3----3----3----3--3--|--4----------------|
--4----4----4----4--4--|--4----4----4----4--4--|--6----------------|
--2----2----2----2--2--|--4----4----4----4--4--|--6----------------|
-----------------------|--2----2----2----2--2--|--4----------------|

ACOUSTIC GUITAR GOES ON IN THIS CHORUS LIKE  THE FIRST CHORUS

CHORUS ( ONE TONE UP)

That I love you
I have loved you all along
And I forgive you
For being away for far too long
So keep breathing
‘Cause I’m not leaving
Hold on to me and
never let me go

|------------------------|--4----4----4----4--4--|
|---6----6----6----6--6--|--4----4----4----4--4--|
|*--6----6----6----6--6--|--5----5----5----5--5--|
|*--6----6----6----6--6--|--6----6----6----6--6--|
|---4----4----4----4--4--|--6----6----6----6--6--|
|------------------------|--4----4----4----4--4--|


                                                8x
--6----6----6----6--6--|--2----2----2----2--2---||-------------------|
--6----6----6----6--6--|--2----2----2----2--2---||--6----------------|
--6----6----6----6--6--|--3----3----3----3--3--*||--6----------------|
--8----8----8----8--8--|--4----4----4----4--4--*||--6----------------|
--8----8----8----8--8--|--4----4----4----4--4---||--4----------------|
--6----6----6----6--6--|--2----2----2----2--2---||-------------------|


ACOUSTIC GUITAR 2 (PLAYED DURING THE CHORUS)
THIS ALSO GOES ONE TONE UP

|---13----------13----------13------|--11----------11----------11------|
|-------14----------14----------14--|------14----------14----------14--|
|-----------13----------13----------|----------13----------13----------|
|-----------------------------------|----------------------------------|
|-----------------------------------|----------------------------------|
|-----------------------------------|----------------------------------|


                                                                       8x
--11----------11----------11------|--11----------11----------11-------||
------14----------14----------14--|------14----------14----------14---||
----------13----------13----------|----------13----------13-----------||
----------------------------------|-----------------------------------||
----------------------------------|-----------------------------------||
----------------------------------|-----------------------------------||


MAN IT TOOK TIME SO NOW YOU OWE ME MUCH MAN
            
Submit corrections

comments powered by Disqus
↑ Back to top | Nickelback Tabs for Far Away. Lyrics for acoustic guitar and electric guitar. 1 Tablatures and chords are parodies/interpretations of the original songs. You may use it for private study, scholarship, research or language learning purposes only