>
 >
Pin Loves Emo

Pin Loves Emo Guitar Tabs

Nick Davis - Pin Loves Emo chords, tabs, tablatures, lyrics

Guitar lessons | Add/correct | Request | Top 50 tabs Artists:  A B C D E F G H I J K L M N O P Q R S T U V W X Y Z 0-9

Pin Loves Emo Guitar Tabs – Nick Davis

CD, Sheet music, Poster

Do you like Pin Loves Emo? Share with your friends now
Tabs
1 -----------------------------------------------
  -----------------------------------------------
  ---5-5---3-3-3---8-8---10-12---12-12-----------
  ---3-3---1-1-1---6-6---8--10---10-10----------- 
  -----------------------------------------------
  -----------------------------------------------
  
2 -----------------------------------------------
  -----------------------------------------------
  -----------------------------------------------
  ---4-4-4-4---2-2-2-2---6-6---8-10---10-10------
  ---4-4-4-4---2-2-2-2---6-6---8-10---10-10------
  ---2-2-2-2---0-0-0-0---4-4---6-8----8--8-------
  
3 -----------------------------------------------
  -----------------------------------------------
  -------------------------666666666666----------
  ---44444444---66666666---666666666666----------
  ---44444444---66666666---444444444444----------
  ---22222222---44444444-------------------------
  
4 -----------------------  5[-----------------------]
  -----------------------   [-----------------------]
  -----------------------   [-----------------------]
  -----------------------   [-----------------------]
  -----------------------   [-----------------------]
  ---5/3-5/3---5/3-5/3---   [---5/3-7---5/3-7-------]
  
Order~
1_x2
2_x4
1_x4
2_x3
3_x1
2and4_x2
1_x4
2_x3
3_x1
2and4_x2
2and5_x2
 Rgangster

1 -----------------------------------------------
  -----------------------------------------------
  ---5-5---3-3-3---8-8---10-12---12-12-----------
  ---3-3---1-1-1---6-6---8--10---10-10----------- 
  -----------------------------------------------
  -----------------------------------------------
  
2 -----------------------------------------------
  -----------------------------------------------
  -----------------------------------------------
  ---4-4-4-4---2-2-2-2---6-6---8-10---10-10------
  ---4-4-4-4---2-2-2-2---6-6---8-10---10-10------
  ---2-2-2-2---0-0-0-0---4-4---6-8----8--8-------
  
3 -----------------------------------------------
  -----------------------------------------------
  -------------------------666666666666----------
  ---44444444---66666666---666666666666----------
  ---44444444---66666666---444444444444----------
  ---22222222---44444444-------------------------
  
4 -----------------------  5[-----------------------]
  -----------------------   [-----------------------]
  -----------------------   [-----------------------]
  -----------------------   [-----------------------]
  -----------------------   [-----------------------]
  ---5/3-5/3---5/3-5/3---   [---5/3-7---5/3-7-------]
  
Order~
1_x2
2_x4
1_x4
2_x3
3_x1
2and4_x2
1_x4
2_x3
3_x1
2and4_x2
2and5_x2
 Rgangster





Comments


Popular Nick Davis tabs & chords
Alo Tabs
Library Nazis Are The Devil Tabs
Water Focus Tabs
When Adam Was With Chelsea Tabs


Song lyrics



↑ Back to top | Tablatures and chords are parodies/interpretations of the original songs. You may use it for private study, scholarship, research or language learning purposes only
© 2014 AZChords.com Contact us | Privacy policy | DMCA | Add/correct tabs | Request tabs | Top 50 tabs