» » »

Nick Davis, Alo Tabs (ver.1)

Artists:  A B C D E F G H I J K L M N O P Q R S T U V W X Y Z # 

Alo Tabs (ver.1)

Nick Davis Tabs
 Rating:
4/5 (4 votes)
Alo lessons Tabs too difficult? Try these video lessons and learn fast
1
                Tuning : E A D G B E

   
|----0---------------------------|----0---------------------------|
|------------3-------1-------0---|------------3-------1-------0---|
|2-2-------2-------2-------2-----|2-2-------2-------2-------2-----|
|--------------------------------|--------------------------------|
|0-------0-------0-------0-------|--------------------------------|
|--------------------------------|1-------1-------1-------1-------|
  
|----0---------------1-----------|----------0-------0-------------|
|------------3---------------0---|1---1-------3-------3---1p0-----|
|1-1-------1-----1-1-------1-----|--4-----2-------------------2---|
|--------------------------------|----------------3---------------|
|--------------------------------|0-------------------------------|
|1-------1-------0-------0-------|--------------------------------|

     
|--------------------------------|--0-------------4-------5-------|
|----0---1p3-0---1h3-0---1-------|2-------6-5-3-----6-------5-----|
|--1-----------------------2-----|----3---------------7-------5---|
|2---------------------------2---|--------0-----------------------|
|----------------0-------0-------|1-----------------------0-------|
|0-------------------------------|----------------0---------------|

 
|----------0---------------------|------------0---1-0---------0---|
|1---1-------3---1---------------|--------1-3---------3---1-------|
|--4-----2---------2-------------|----0-----------2---------2-----|
|--------------------2-----2-----|--2-----------------------------|
|0---------------0-------3---2---|3-------3---------------0-------|
|--------------------------------|----------------1---------------|


|--------0-----------------------|0-------------------1-------0---|
|3-------1-------3---3---3---3---|1---1---1---1---3-------1-------|
|2-------0-------0---0---0---0---|0---0---0---0-----0-------0-----|
|--3-------2-------0-------------|----------------3-------2-------|
|----2---3---3-------------------|3-3-------3---------2-------3---|
|1---------------3---------3-----|--------------------------------|

  
|----------1-3---0---------8-10--|7---------4-7---5---------------|
|3-----------------3-1-----------|--0---------------5-------------|
|--0-----------------------------|----0---------------5-----5-----|
|----0---------------------------|------------------------7---7---|
|2-------2-------3---------------|----------------0---------------|
|-----------------------/8-------|3-------4-----------------------|

      
|--------------------------------|----0---------------------------|
|--------1---1-------------------|------------3-------1-------0---|
|----------4-----2---2-----------|2-2-------2-------2-------2-----|
|2---2-------------3-----2-------|--------------------------------|
|--3-----0-----------------3p2---|0-------0-------0-------0-------|
|--------------------------------|--------------------------------|

    
|----0---------------------------|----1---------------0-----------|
|------------3-------1-------0---|------------0---------------3---|
|2-2-------2-------2-------2-----|1-1-------1-----1-1-------1-----|
|--------------------------------|--------------------------------|
|--------------------------------|--------------------------------|
|1-------1-------1-------1-------|1-------1-------0-------0-------|


|----------------------------0---||
|----0---3---0---3-1-------1-----||
|2-4-------5---------2-----------||
|--------------------------------||
|0---------------0-------0-------||
|--------------------------------||
            
Submit corrections

comments powered by Disqus
↑ Back to top | Nick Davis Tabs for Alo. Lyrics for acoustic guitar and electric guitar. 1 Tablatures and chords are parodies/interpretations of the original songs. You may use it for private study, scholarship, research or language learning purposes only