» » »

So Sick Tabs (ver.4)

Artists:  A B C D E F G H I J K L M N O P Q R S T U V W X Y Z # 

So Sick Tabs (ver.4)

Ne-Yo
Rating:
0/5 (0 votes)
Tabs too difficult? Try these video lessons and learn fast.
                |--14-13-14--11--------------|
|--7--11--7-6--9-6-----------|   
|----------------------------|        2 times
|----------------------------|
|----------------------------|
im so sick of love songs...


|---4h5----------------------|
|------5---------------------|
|----------------------------|
|----------------------------|
|----------------------------|
|----------------------------|
but its the only way i hear...


please rate


message me if somethin is wrong
            
Tabs too difficult? Try these video lessons and learn fast.


comments powered by Disqus
↑ Back to top | Tablatures and chords are parodies/interpretations of the original songs. You may use it for private study, scholarship, research or language learning purposes only