» » »

Ne-Yo, Sexy Love Tabs (ver.3)

Artists:  A B C D E F G H I J K L M N O P Q R S T U V W X Y Z # 

Sexy Love Tabs (ver.3)

Ne-Yo Tabs
Rating:
5/5 (2 votes)
Sexy Love lessons Tabs too difficult? Try these video lessons and learn fast
                -------------------------------------------------------------------------------
                             Sexy Love - Ne-yo
-------------------------------------------------------------------------------


here's how you do it

Capo 4
~tabs are relative to the capo~

Tuning:standard

Intro

e|--------------------------------------------------------------------------------------|
B|--------0--------0h2---4----------------------0---------------------------------------|
G|---1----0----3---------3----3--1---------1----0---3-----------------------------------|
D|---2---------4---------4-------2---------2--------4-----------------------------------|
A|---2---------4---------2-------2---------2--------4-----------------------------------|
E|---0---------2-----------------0---------0--------2-----------------------------------|

Verse
Gtr 1
she makes the hair....
e|--------------------------------------------------|
B|--------------------------------------------------|
G|----3--4--6--3--4--6--3--4--6--3--4--4----3-------|
D|--------------------------------------------4--4--|
A|--------------------------------------------------|
E|--------------------------------------------------|

Gtr 2

e|-------------------------------------------------------------2------|
B|--------0--------0h2---4----------------------0------0h2--4--4------|
G|---1----0----3---------3----3--1---------1----0---3-------3------1--|
D|---2---------4---------4-------2---------2--------4-------4------2--|
A|---2---------4---------2-------2---------2--------4-------2------2--|
E|---0---------2-----------------0---------0--------2--------------0--|

and i erupt like.....
e|--------------------------------------------------|
B|--------------------------------------------------|
G|-----1--1--3--3--4--6--3--4--6--3--4--6--3--4--4--|
D|---4----------------------------------------------|
A|--------------------------------------------------|
E|--------------------------------------------------|

baby girl you make me say oOo....
e|---------------------------------------------------------------------------------------|
B|---------------------------------------------------------------------------------------|
G|--4--3--4--3--4--6--4--4--8--6---------------------------------------------------------|
D|---------------------------------------------------------------------------------------|
A|---------------------------------------------------------------------------------------|
E|---------------------------------------------------------------------------------------|

and i just cant think....
e|--------------------------------------|
B|--------------------------------------|
G|--4h6s8--4---3--3--4--3--4--4-----X2--|
D|-----------4--------------------------|
A|--------------------------------------|
E|--------------------------------------|

e|---------------------------------------------------------------|
B|-------------2--4--7--4--4--2----------------------------------|
G|--4h6s8--4--------------------4-----4--4--3--4--6--4--4--8--6--|
D|-----------4---------------------------------------------------|
A|---------------------------------------------------------------|
E|---------------------------------------------------------------|

Chorus

e|-------------------------------------------------------------2-----|
B|--------0----2----0h2--4----------------------0---2--0h2--4--4--0--|
G|---1----0----3---------3----3--1---------1----0---3-------3-----1--|
D|---2---------4---------4-------2---------2--------4-------4-----2--|
A|---2-------------------2-------2---------2----------------2--------|
E|---0---------2-----------------0---------0--------2-------------0--|

e|-----------------------------------------------|
B|--0---4--2--0h2--4-----0------0------0---4--2--|
G|--1------3-------3--3--1------1------1------3--|
D|--2------4-------4--4--2------2------2------4--|
A|-----------------2-----------------------------|
E|--0------2-------------0------0------0------2--|

repeat verse
repeat chorus

Bridge
Gtr1
e|------------------------------------------------------------------------|
B|---4s6s8--8--8--9--8--6--8--6--6--4--6--3--4s6--6--6--7--6--4--6--4--6--|
G|------------------------------------------------------------------------|
D|------------------------------------------------------------------------|
A|------------------------------------------------------------------------|
E|------------------------------------------------------------------------|

e|------------------------------------------------------------------------|
B|---4s6s8--8--8--9--8--6--8--6--6--4--6--3--4s6--6--6--7--6--4--6--4--6--|
G|------------------------------------------------------------------------|
D|------------------------------------------------------------------------|
A|------------------------------------------------------------------------|
E|------------------------------------------------------------------------|


e|----------------------------------------------------------------------------------|
B|--8--9--8--11---------------------------------------------------------------------|
G|----------------------------------------------------------------------------------|
D|----------------------------------------------------------------------------------|
A|----------------------------------------------------------------------------------|
E|----------------------------------------------------------------------------------|


e|-------------------------------------------------------------------------------------|
B|-------------------------------------------------------------------------------------|
G|-----4------------6------------------------------------------------------------------|
D|----4-----X4-----6---X4------------X4------------------------------------------------|
A|---4------------6--------------------------------------------------------------------|
E|-------------------------------------------------------------------------------------|

Chorus x2
Verse


| /  slide up
| \  slide down
| h  hammer-on
| p  pull-off
| ~  vibrato
| +  harmonic
| x  Mute note
===============================================================================
            

comments powered by Disqus
↑ Back to top | Ne-Yo Tabs for Sexy Love. Lyrics for acoustic guitar and electric guitar. Tablatures and chords are parodies/interpretations of the original songs. You may use it for private study, scholarship, research or language learning purposes only