» » »

Over My Head Tabs (ver.1)

Artists:  A B C D E F G H I J K L M N O P Q R S T U V W X Y Z # 

Over My Head Tabs (ver.1)

Ne-Yo
Rating:
3/5 (3 votes)

Hard to play? Try these video lessons and learn fast.
                JKJ


Regular Tuning


intro/Chorus

e|--5/7-7-7-7-7-7-5-3--3/5-5-5-5-5-5-5-5-3-3|
B|------------------------------------------|
G|------------------------------------------|
D|------------------------------------------|
A|------------------------------------------|
E|------------------------------------------|


Verse

e|--x--7--7--7--7--7--7--7--7--x--5--5--5--5--5--5--5--5-|
B|--x--9--9--9--9--9--9--9--9--x--7--7--7--7--7--7--7--7-|
G|--x--9--9--9--9--9--9--9--9--x--7--7--7--7--7--7--7--7-|
D|--x--9--9--9--9--9--9--9--9--x--7--7--7--7--7--7--7--7-|
A|--x--x--x--x--x--x--x--x--x--x--x--x--x--x--x--x--x--x-|
E|--x--x--x--x--x--x--x--x--x--x--x--x--x--x--x--x--x--x-|

so i had someone, you had someone
we started out as nothing more than friends (ohh)
but as the time i spent, started like spending time with you more than him (ohh)

(and it wasn't what i meant to do, started thinking about kissing you)
accidently, accidently (oh)
(suddenly out of the blue, guess she was thinking about it too)
cause you kissed me and he saw it

damn. damn.

I might be over my head
a little over my head
but i kinda like it
this is not what i expected
a little over my head
but i kinda like it
i kinda like it

said i kinda like it (ohh)


so of course he started acting crazy,
wound up punching you in the eye (oh)
he felt like the man but i felt bad
so i called you later to apologize (oh)


(and it wasn't what i meant to do, started thinking about seeing you)
accidently, accidently (oh)
(suddenly out of the blue, guess she was thinking about it too)
cause you came and get me and he saw you

damn. damn. damn.

I might be over my head
a little over my head
but i kinda like it
this is not what i expected
a little over my head
but i kinda like it
i kinda like it

this is so crazy and so hard
their fighting over me in the front yard
i dont know who i should root for
but there's one thing i do know.


I might be over my head
a little over my head
but i kinda like it
this is not what i expected
a little over my head
but i kinda like it
i kinda like it.

I might be over my head
a little over my head
but i kinda like it (but i kinda liked it)
this is not what i expected
a little over my head
but i kinda like it (kinda like it)
i kinda like it


a little over my head
a little over my head my head my head
a little over my head
a little over my head
            
Hard to play? Try these video lessons and learn fast. | Correct




comments powered by Disqus
↑ Back to top | Tablatures and chords are parodies/interpretations of the original songs. You may use it for private study, scholarship, research or language learning purposes only