>
 >
Mad 1

Mad 1 Guitar Tabs

Ne-Yo - Mad 1 chords, tabs, tablatures, lyrics

Guitar lessons | Add/correct | Request | Top 50 tabs Artists:  A B C D E F G H I J K L M N O P Q R S T U V W X Y Z 0-9

Mad 1 Guitar Tabs – Ne-Yo

CD, Sheet music, Poster

Do you like Mad 1? Share with your friends now
ChordsChords v2Chords v3Chords v4TabsTabs v2Ukulele
E|---------------8----7---|-7---------7------------|---------------------------------|
B|---------------8----8---|-8-------------10--8----|-------------5--6-----6-5--------|
G|-9--------9---------9---|------7-----------------|---------7---7--7---7--------7---|
D|------10----------------|------------------------|-----7---------------------------|
A|------------------------|------------------------|-5---------------------------5---|
E|-8-------------8--------|-7----7----7-------7----|--------------------7------------|


E|-----------------------------------|-----------------------------|-----------------------------|
B|---------1---0--1--0---0---1---3---|-3--------0--1--0---1----0---|-0--------0--1--0----1---1---|
G|-----2-----------------------------|-----------------------------|-----------------------------|
D|-3-------3---3-----------------3---|-----------------------------|-----------------------------|
A|-----------------------------------|-3----3---3--------------3---|-2----2---2--------------2---|
E|-----------------------------------|-----------------------------|-----------------------------|


E|----------0-------------|-----------------0------------|--------------------------------|
B|-1-------------1--------|---------1-----------1--------|-1----1---0--1--0---0-------1---|
G|------0------------0----|-----2-------2-----------2----|-0----0-----------------0-------|
D|------------------------|-3-----------------------3----|--------------------------------|
A|-0-----------------0----|------------------------------|-3----3---3-----------------3---|
E|------------------------|------------------------------|--------------------------------|


E|----------------------0---1---|--------------0------------|-----------------0------------|
B|-1-------1----1---3-----------|-3---5---1--------1----3---|---------1-----------1--------|
G|-----0------------------------|---------------------------|-----2-------2-----------2----|
D|------------------------------|-0---------------------0---|-3-----------------------3----|
A|-2-------2----2-----------2---|---------------------------|------------------------------|
E|------------------------------|---------------------------|------------------------------|


E|---------------------------|------------------------------|------------------------------|
B|---------1-------1----3----|-0---1---0---1--------3---1---|-0---1---0---1--------3---1---|
G|-----2-------2-------------|-2-----------2----2-----------|-0-----------0----2-----------|
D|-3-----------3---3----3----|------------------------------|------------------------------|
A|---------------------------|-0-------0---0------------0---|------------------------------|
E|---------------------------|------------------------------|-3-------3---3------------3---|


E|-----------------------|------------------------------|------------------------------|
B|-0---1---0---1-----1---|-0---1---0---1--------3---1---|-0---1---0---1--------3---1---|
G|-2-----------2---------|-0-----------0----2-----------|-2-----------2----2-----------|
D|-----------------------|------------------------------|------------------------------|
A|-----------------------|------------------------------|-0-------0---0------------0---|
E|-1-------1---1-----1---|-3-------3---3------------3---|------------------------------|


E|-------------------------0---1---|--------------0------------|-----------------0----3----|
B|-0---1-------0---1---3-----------|-3---5---1--------1--------|-----0---1---3-------------|
G|-0-------2-----------------------|-----------------------0---|-2-------------------------|
D|---------------------------------|-0---------------------0---|---------------------------|
A|---------------------------------|---------------------------|---------------------------|
E|-3-----------3---3-----------3---|---------------------------|-1-----------1---1----3----|


E|-7--------5----------------|-3--------1----------------|---------------------------|
B|-5--------5----------------|-1--------1----1---0---1---|-3---5----3--------3-------|
G|---------------5---4---5---|---------------------------|-2---4----2--------2---0---|
D|---------------------------|---------------------------|-0--------0----0-------0---|
A|-0----0----------------0---|---------------------------|---------------------------|
E|---------------------------|-1----1----------------1---|---------------------------|


E|-----------------------0---|-0-----------------------0---1---|-3-----------3-----------3-------|
B|-3---5----3--------3-------|-----3---1---0---1---3-----------|-----1-----------1-----------1---|
G|-2---4----2--------2-------|---------------------------------|---------0-----------0-----------|
D|-0--------0----0-------0---|---------------------------------|---------------------------------|
A|---------------------------|---------------------------------|-3-------3---3---------------3---|
E|---------------------------|-3-----------3---3-----------3---|---------------------------------|


E|-----3-----------3---1---0-------|-------------0--1--0------------|-----------------0----1----|
B|---------3-------------------3---|---------3---3-----3--------3---|---------1-------1----1----|
G|-0-----------0-------------------|-----2------------------2-------|-----2-------2-------------|
D|---------------------------------|-0--------------------------0---|-3--------------------3----|
A|---------------------------------|--------------------------------|---------------------------|
E|-3-----------3---3-----------3---|--------------------------------|---------------------------|


E|---------------------------------|----------0----3--------|---------------------------------|
B|---------1-------1---0-------0---|-1--------1----1----1---|-1-------1-------1---0-------0---|
G|-----2-------2-----------2-------|-0------------------0---|-0---0-------0-----------2-------|
D|-3-----------3---3-----------3---|------------------------|---------------------------------|
A|---------------------------------|-3----3-------------3---|-2-----------2---2-----------2---|
E|---------------------------------|------------------------|---------------------------------|


E|----------0----3--------|---------------------------------|---------0-----------------|
B|-1--------1----1----3---|-3-------1-------1---0-------0---|-0-----------3----1----1---|
G|-0------------------0---|-0---0-------0-----------2-------|-2---2---------------------|
D|------------------------|---------------------------------|---------------------------|
A|-0----0-------------0---|---------------------------------|---------------------------|
E|------------------------|-1-----------1---1-----------1---|-1---------------------1---|


E|---------------8----7---|-----------7------------|---------------------------------|
B|---------------8----8---|---------------10--8----|-------------5--6---6-6-5--------|
G|-9--------9-------------|------7-----------------|---------7---7--7------------7---|
D|------10----------------|------------------------|-----7---------------------------|
A|------------------------|------------------------|-5---------------------------5---|
E|-8-------------8--------|-7----7----7-------7----|---------------------------------|


E|-----------------0------------|--------|
B|---------1-----------1--------|-3------|
G|-----2-------2-----------2----|--------|
D|-3-----------------------3----|-3------|
A|------------------------------|--------|
E|------------------------------|--------|





Comments


Popular Ne-Yo tabs & chords
Genuine Only Chords
Go On Girl 2 Tabs
Make It Work Tabs
Sexy Love Tabs
So Sick 1 Tabs
Beautiful Monster 2 Ukulele
Do You Ukulele
Go On Girl Ukulele
Lie To Me Ukulele
One In A Million Ukulele


Song lyrics



↑ Back to top | Tablatures and chords are parodies/interpretations of the original songs. You may use it for private study, scholarship, research or language learning purposes only
© 2014 AZChords.com Contact us | Privacy policy | DMCA | Add/correct tabs | Request tabs | Top 50 tabs