» » »

New Years Day, Temecula Sunrise Tabs (ver.1)

Artists:  A B C D E F G H I J K L M N O P Q R S T U V W X Y Z # 

Temecula Sunrise Tabs (ver.1)

New Years Day Tabs
 Rating:
4/5 (4 votes)
Temecula Sunrise lessons Tabs too difficult? Try these video lessons and learn fast
                Well I just saw that Adam Lohrbach brought this song on with him to New Year's Day album 
figured I would post my old tab from the Home Grown demo.


I only heard the Itunes preview of the song, and I am sure there are minor differences.  
the song might be in standard tuning (with drop D) and not half step like it was in 
Grown.


Temecula sunrise (demo) by Home Grown
-----------------------------------------------------------


tuning is dropped D half step down
so that means Db Ab Db Gb Bb Eb (low to high)

very hard to hear both guitars since its a demo so might be off

Verse- its all palmmuted
e|-------------------------------------------------|
B|-------------------------------------------------|
G|-------------------------------------------------|
D|-------------------------------------------------|
A|--5-5-5-5-4-4-4-4-7-7-7-7-5-5-4-4----------------|
E|-0-0-0-0-0-0-0-0-0-0-0-0-0-0-0-0-----------------|

e|-------------------------------------------------|
B|-------------------------------------------------|
G|-------------------------------------------------|
D|-------------------------------------------------|
A|--5-5-5-5-4-4-4-4-7-7-7-7-5-5-4-4----------------|
E|-5-5-5-5-5-5-5-5-5-5-5-5-5-5-5-5-----------------|

e|-------------------------------------------------|
B|-------------------------------------------------|
G|-------------------------------------------------|
D|-------------------------------------------------|
A|--5-5-5-5-4-4-4-4-7-7-7-7-5-5-4-4----------------|
E|-2-2-2-2-2-2-2-2-5-5-5-5-5-5-5-5-----------------|
play twice then
this leads to chorus
e|-------------------------------------------------|
B|-------------------------------------------------|
G|-------------------------------------------------|
D|-------------------------------------------------|
A|--5-5-5-5-7-7-7-7-9-9-9-9-12-12-12-12------------|
E|-0-0-0-0-0-0-0-0-0-0-0-0-0--0--0--0--------------|

Chorus - Guitar 1 - listen for strokes just repeat over and over
e|------------------------------------------------------|
B|------------------------------------------------------|
G|--7-7-7-7-6-6-7-7--11-11-12-12-11-11------------------|
D|--x-x-x-x-x-x-x-x---x--x--x--x--x--x------------------|
A|--5-5-5-5-4-4-5-5---9--9-10-10--9--9------------------|play 8 times
E|------------------------------------------------------|

Chorus Guitar 2- listen for strumming, play once
e|-------------------------------------------------------|
B|-----------------------end with this when--------------|
G|--7--------------------going to bridge and-end of song-|
D|--7----5----9----7-------------------5-----------------|
A|--5----5----9----7-------------------5-----------------|
E|-------5----9----7-------------------5-----------------|


Bridge Guitar 1 - listen for strumming. play twice
e|--------------------------------------------------------|
B|----*---------------------------------------------------|
G|---*5---------------------------------------------------|
D|-*-5---2------4----5----4-------------------------------|
A|-5-----2------4----5----4-------------------------------|
E|-------2------4----5----4-------------------------------|

Bridge Guitar 2 just do this over and over, play 8 times
listen for strumming
e|-------------------------------------------------|
B|-------------------------------------------------|
G|----7-7--7-7--7-7--7-7--7-9-6-7------------------|
D|----x-x--x-x--x-x--x-x--x-x-x-x------------------|
A|----5-5--5-5--5-5--5-5--5-7-4-5------------------|
E|-------------------------------------------------|

e|------0-----------0----------0-----------0-------|
B|---3-----3-----3-----3-----3-----3-----3-----3---|
G|--2-2--2--2---2-2--2--2---2-2--2---2--2-2--2--2--|
D|-0----------0-----------0-----------0------------|
A|-------------------------------------------------|
E|-------------------------------------------------|

keep picking it like above, just change the basslines to these
e|--------------then palmmute-----------------------|back to chorus
B|-----------------this------------*----------------|
G|--------------------2-2-2-2-----*5----------------|
D|--5-----------------2-2-2-2----*5-----------------|
A|------2-------------0-0-0-0----5------------------|
E|--------------------------------------------------|

I'm sorry if its not exact, its really hard to hear since its a demo, but oh well
            
Submit corrections

comments powered by Disqus
↑ Back to top | New Years Day Tabs for Temecula Sunrise. Lyrics for acoustic guitar and electric guitar. Tablatures and chords are parodies/interpretations of the original songs. You may use it for private study, scholarship, research or language learning purposes only