» » »

Part Time Lover Tabs (ver.1)

Artists:  A B C D E F G H I J K L M N O P Q R S T U V W X Y Z # 

Part Time Lover Tabs (ver.1)

New Years Day
Rating:
0/5 (0 votes)

Hard to play? Try these video lessons and learn fast.
                New Years Day
My Dear
2007 TVT Records

Key: Eb

Tuning: Standard EADGBe

Chords used:
Eb -   x68886
Gm -   355333
Cm -   x35543
G# -   466544
Eb/G - 365xxx
Bb -   x13331
Bb/D - x587xx


Intro: Eb--G#

Bass:
G|-------------15--------------15--------------|
D|----13-12-13--------13-12-13--------13-12----|
A|-13--------------13--------------13-------13-| (x2)
E|---------------------------------------------|

Guitar 2: Will enter at G#
e|---------6----------6----------|
B|---4-3-4------4-3-4------4-3---|
G|-3----------3----------3-----3-|
D|-------------------------------| x2
A|-------------------------------|
E|-------------------------------|


Verse 1:
Eb
  Say what you want, I'll believe it
Bb/D                           G#
  No, you don't really have to mean it
I never had a chance, always was a
sucker for a part time lover's romance
Eb
  Say what you want, I'll believe it
Bb/D                           G#
  No, you don't really have to mean it
I never had a chance, always was a
             Bb(hold)
sucker for a part time lover's romance


Chorus:
Eb
  Take time if you need it
Gm
  Rewind and repeat it
Cm               Bb/D
  Well tears fall, better believe it
Eb/G      G#            Bb
Every day feels like forever
(Repeat)

Guitar 2: Everyday feels..
e|---------------------------------|
B|---------------------------------|
G|---------3-3---------3-3---------|
D|-----1-1---------1-1-------------|
A|-----------------------------1-1-|
E|-3-3---------4-4---------4-4-----|


Interlude: Eb
e|---------6----------6----------|
B|---4-3-4------4-3-4------4-3---|
G|-3----------3----------3-----3-|
D|-------------------------------| x2
A|-------------------------------|
E|-------------------------------|


(Repeat 1st lines of Verse 1)


Verse 2:
Eb
  Yeah, take what you want, I don't need it
Bb/D                              G#
  I'll play the giver if you'll receive it
I never had a chance, always was a
                       Bb
sucker for a part time lover's romance


Refrain:
Cm
  Every day is bitter
sweet sweet bitter
Bb
  I've got the time if

you've got time to remember
G#
  But it's clear that you don't
       Bb
If you did, then you'd show it
If you feel it, you might know it
Cm
  Every day is bitter
sweet sweet bitter
Bb
  Disappoint me, yeah you
sure do deliver
G#
  You always seem just like
an orphan on Christmas
     Bb
I'll take what I can get
                         Eb(hold) Bb/D(hold)
 but it's not on my wish list
                              Cm--Bb/D-Eb-Eb/G-G#-Bb
(wasn't ever on my wish list)

e|---------------------------------|
B|---------------------------------|
G|---------3-3---------3-3---------|
D|-----1-1---------1-1-------------|
A|-----------------------------1-1-|
E|-3-3---------4-4---------4-4-----|


(Repeat Chorus)


Outro:
Eb/G      G#            Bb  Eb(hold)
Every day feels like forever
Eb
  Take time if you need it
Eb
  Rewind and repeat it
Bb/D                      Eb(hold)
  Take time if you need it
            
Hard to play? Try these video lessons and learn fast. | Correct




comments powered by Disqus
↑ Back to top | Tablatures and chords are parodies/interpretations of the original songs. You may use it for private study, scholarship, research or language learning purposes only