» » »

My Dear Tabs (ver.1)

Artists:  A B C D E F G H I J K L M N O P Q R S T U V W X Y Z # 

My Dear Tabs (ver.1)

New Years Day
Rating:
0/5 (0 votes)

Hard to play? Try these video lessons and learn fast.
                New Years Day
2007 TVT Records

This song resembles HELENA by MY CHEMICAL ROMANCE if you listen carefully!!!

Key: F

Tuning: Standard EADGBe

Chords used:
Dm -   xx0231
A/C# - x4222x or x476xx
F -    133211
Gm -   355333
A -    x02220
Bb -   x13331
C -    x32010
Dm -   xx0231


Verse 1: Do the very fast guitar 2 part
   Dm7
My dear
              A/C#
Take what you want from me
              FM7     F
I'll give you anything
     FM7   A/C#
Just don't leave me on my own
              Gm
Desperate and destitute
  Bb            A/C#   C      FM7
A shadow of the former self I knew


Guitar 2: Very Fast up and down picking!!!!!
               Dm7                              A/C#
e|---------------------------------|---------------------------------|
B|---------------------------------|---------------------------------|
G|---------5-5---------5-5---------|---------2-2---------2-2-----0-0-|
D|-----3-3---------3-3---------3-3-|-----2-2---------2-2-------2-----|
A|-5-5---------5-5---------5-5-----|-4-4---------4-4---------4-------|
E|---------------------------------|---------------------------------|
               x2                                   x2
then
                 FM7                              F            FM7
e|---------------------------------------|-----------------|-------------------------|
B|---------------------------------------|-----------------|-------------------------|
G|-----------9-9-----------9-9-----------|-----------10-10-|-----------9-9-----------|
D|-----10-10---------10-10---------10-10-|-----10-10-------|-----10-10---------10-10-|
A|-8-8-----------8-8-----------8-8-------|-8-8-------------|-8-8-----------8-8-------|
E|---------------------------------------|-----------------|-------------------------|
then
                                     A/C#
e|-------------------------------------------------------------------------------------|
B|-----------------------------------------------------10-10---------------------------|
G|-----------12-12-----------12-12-------------------------------------12-12-----------|
D|-------------------------------------------------------------------------------------|
A|-----12-12-----------12-12-----------12-12-----12-12-----------12-12-----------12-12-|
E|-9-9-------------9-9-------------9-9-------9-9-------------9-9-------------9-9-------|
then
                                     Gm
e|-----------------------------------------------------------------------------------|
B|-----------------------------------------------------8-8---------------------------|
G|-----------10-10-----------10-10-----------------------------------10-10-----------|
D|-------8-8-------------8-8-------------8-8-------8-8-----------8-8-------------8-8-|
A|-10-10-----------10-10-----------10-10-----10-10---------10-10-----------10-10-----|
E|-----------------------------------------------------------------------------------|
then
               Bb                       A/C#                C
e|---------------------------------|-------------|---------------------|
B|---------------------------------|-------------|---------------------|
G|---------3-3---------3-3---------|---------2-2-|---------5-5---------|
D|-----3-3---------3-3---------3-3-|-----2-2-----|-----5-5---------5-5-|
A|-1-1---------1-1---------1-1-----|-4-4---------|-3-3---------3-3-----|
E|---------------------------------|-------------|---------------------|
then
                 FM7
e|---------------------------------------|
B|---------------------------------------|
G|-----------9-9-----------9-9-----------|
D|-----10-10---------10-10---------10-10-|
A|-8-8-----------8-8-----------8-8-------|
E|---------------------------------------|


Verse 2: Distortion
   Dm
              A/C#
Take what you want from me
              F
I'll give you anything
           A/C#
Just don't leave me on my own
              Gm
Desperate and destitute
  Bb            A/C#   C      F
A shadow of the former self I knew


Chorus 1:
F
  Take what you want from me
Dm
  I'll give you anything
Bb
  It's so pathetic I make myself sick
  C
I can't get over you
                        F(hold)
I can't get over any of this

Verse 3:
   Dm
               A/C#
Is this really happening?
                    F
Do these tears mean anything?
              A/C#
How could you leave me on my own?
              Gm
Desperate and destitute
      Bb                A/C#      C       F
These seconds feel like lifetimes without you


(Repeat Chorus 1)


Chorus 2:
F
  I never thought I'll be the one with the weakness
Dm
  You called the shutter I'd stay up all nights sleepless
Bb
  It's so pathetic I make myself sick
  C
I can't get over you
I can't get over any of this


Interlude: Dm-A/C#-F-A/C#-Gm-Bb-A/C#-C


Bridge:
  Dm
I can't get over you
I can't get over any of
  A/C#
I can't get over you
I can't get over any of
  C
I can't get over you
F
  Take what you want from me
Gm
  I'll give you anything
Bb
  I'll give you everything
Gm              A/C#
  I'll give you everything


(Repeat Chorus 1 and Chorus 2)
            
Hard to play? Try these video lessons and learn fast. | Correct




comments powered by Disqus
↑ Back to top | Tablatures and chords are parodies/interpretations of the original songs. You may use it for private study, scholarship, research or language learning purposes only