» » »

New Trolls, Vorrei Comprare Una Strada Tabs (ver.1)

Artists:  A B C D E F G H I J K L M N O P Q R S T U V W X Y Z # 

Vorrei Comprare Una Strada Tabs (ver.1)

New Trolls Tabs
 Rating:
4/5 (4 votes)
Vorrei Comprare Una Strada lessons Tabs too difficult? Try these video lessons and learn fast
                New Trolls   -   Vorrei comprare una strada

Intro: (Dm - Dm/C# - Dm/C - Dm/B)x2

Verse1:

 Dm		  Dm/C#		   Dm/C		   Dm/B
|----1----------------1----------------1----------------1--------|
|------3----------------2----------------1----------------0------|
|----------2----------------2----------------2----------------2--|
|0----------------0----------------0----------------0------------|
|----------------------------------------------------------------|
|----------------------------------------------------------------|
 _Vorrei com______prare una________strada__________centro di____


 Dm		  Dm/C#		   Dm/C		   Dm/B
|----1----------------1----------------1----------------1--------|
|------3----------------2----------------1----------------0------|
|----------2----------------2----------------2----------------2--|
|0----------------0----------------0----------------0------------|
|----------------------------------------------------------------|
|----------------------------------------------------------------|
_Nuova York

Verse2:

La vorrei lunga e affollata di gente di ogni età.

Rit:
(Gm)	   (C)     (Gm)	        (C-C7)   (F)         (A7)
 E tanta__ luce___ nei buffi___ tubi___ di vetro___ colorato.

Verse:

Una fontana con mille bambini che giocano.

Un gatto grigio che scalda assonnato il suo angolo.

Rit:

E voli alti contro i colori dell'arcobaleno.

E al tramonto vorrei sedermi all'ombra di un grattacielo.

Verse:

Fino a che io sentirò una voce che mi dirà:

"Scusami William, mi spiace per te ma è la fine"
            
Submit corrections

comments powered by Disqus
↑ Back to top | New Trolls Tabs for Vorrei Comprare Una Strada. Lyrics for acoustic guitar and electric guitar. Tablatures and chords are parodies/interpretations of the original songs. You may use it for private study, scholarship, research or language learning purposes only