» » »

Newton Faulkner, Uncomfortably Slow Chords (ver.1)

Artists:  A B C D E F G H I J K L M N O P Q R S T U V W X Y Z # 

Uncomfortably Slow Chords (ver.1)

Newton Faulkner Tabs
4/5 (4 votes)
Uncomfortably Slow lessons Tabs too difficult? Try these video lessons and learn fast
                Chords used:
E major:                      A major

e|-7--------                e|--5--------|
B|-9--------                B|--5--------|
G|-9--------                G|--6--------|
D|-9--------                D|--7--------|
A|-7--------                A|--7--------|
E|-7---------               E|--5--------|

D major                       Dunno the name of this one

e|-5--------                 e|---x--------|
B|-7--------                 B|---7--------|
G|-7--------                 G|---9--------|
D|-7--------                 D|---8--------|
A|-5--------                 A|---9--------|
E|-5---------                E|---7--------|

E                         D
Travelling again, I know exactly how its gonna end

     A                 E               D
The routine daydreams starts to sag it off

E                                   D
I’m holding up the queue because my ticket won’t go through

   A                 E               D
I know it should be simple but, it’s not

E                 D
So, don’t take my photograph

E                    D                             E
Cause I don’t wanna know how it looks to feel like this

E                  D
As cars and people pass

    Weird chord                   D
It feels like standing still but, I know
         E        D           A
I’m just moving uncomfortably slow
Submit corrections

comments powered by Disqus
↑ Back to top | Newton Faulkner Chords for Uncomfortably Slow. Lyrics for acoustic guitar and electric guitar. Tablatures and chords are parodies/interpretations of the original songs. You may use it for private study, scholarship, research or language learning purposes only